Oops, an error
Loading. Please wait.

Un Lugar Tab

version 2
version 2

Whole song

52 views 1 this week
no commentswrite comment
1 2 3 4 5
2 more votes to show rating
add to favorites
launch autoscroll
font size
0
reset
how to read this tab
guitar tuner
Autoscroll
slow
fast
+/-
esc
set tempo
stop
Help us to improve Ultimate-Guitar.com Take our survey!
×
INTRO:
e|----------------------------------------------------------|
B|-2s4-2-0-------0-2s5-7-9-4-2--7-4-7-7s11-14-12-7--3s5-4-2-|
G|---------3-1-3--------------------------------------------|
D|----------------------------------------------------------|
A|----------------------------------------------------------|
E|----------------------------------------------------------|

CANCION:
e|-2-2-2-2-4-2-0-0---0-----------|
B|---------------------4-2-0-0s2-|
G|-------------------------------|
D|-------------------------------|
A|-------------------------------|
E|-------------------------------|

e|----------------------------------|
B|-2s4-2-0--------0-2s5-5-4-2-0-0s2-|
G|----------3-1-3-------------------|
D|----------------------------------|
A|----------------------------------|
E|----------------------------------|

e|---------------------------------|
B|-9-7-5-4--4-8-11-12-11-9-7-4-0---|
G|---------------------------------|
D|---------------------------------|
A|---------------------------------|
E|---------------------------------|

e|---------------------------------|
B|-5-5-5-5-4-2-4-0--4-2-0----------|
G|------------------------3-3s4----|
D|---------------------------------|
A|---------------------------------|
E|---------------------------------|

e|------------------------------------------|
B|--4-4-7-7--4-2-0-0s2--4-4-7-7-4-2-0-0s2---|
G|------------------------------------------|
D|------------------------------------------|
A|------------------------------------------|
E|------------------------------------------|

e|--------------------------------------------------|
B|--4-5-7-7-5-4-5-7-7s9-7-5-4-4s5--4-2-0-----2-4-0--|
G|--------------------------------------------------|
D|---------------------------------------4----------|
A|--------------------------------------------------|
E|--------------------------------------------------|

*********************************************************
para todos los pibes de 2ºc ;)
#
Suggest correction
Give kudos to tab author, rate the tab!
1 2 3 4 5
comments
print report bad tab
guest
You may want to rate the tab now too:
select rating
Wanna post a correction for this tab? Suggest correction