Oops, an error
Loading. Please wait.

Cop Graveyard Tab

1,342 views 36 this week
no commentswrite comment
1 2 3 4 5
x 5
add to favorites
launch autoscroll
font size
0
reset
how to read this tab
guitar tuner
Autoscroll
slow
fast
+/-
esc
set tempo
stop
Author
Difficulty
novice
Tabbed by J

This song has been transcribed from some sort of keyboard to guitar 

[Verse]

they said i was fucked in the head
and dragged me out of my house
later on on the way to your school
left my body on the side of the road

now you've come back into my life
it's like all the dreams i had have come true
i fell asleep in my car one night
and never woke up, never woke up

you said i was fucked in the head
i'll never leave my bed again
im not made for the life i have
i never meant to hurt anyone

(Each chord represents two eighth notes)
e|-7-7-7-7-6-6-6-6-0-0-0-0-2-2-2-2-|
B|-7-7-7-7-7-7-7-7-0-0-0-0-2-2-2-2-|
G|-8-8-8-8-8-8-8-8-1-1-1-1-3-3-3-3-| X 2
D|-9-9-9-9-8-8-8-8-2-2-2-2-4-4-4-4-|
A|-9-9-9-9-6-6-6-6-2-2-2-2-4-4-4-4-|
E|-7-7-7-7-x-x-x-x-0-0-0-0-2-2-2-2-|

[Chorus]

(Same deal)
e|-7-7-7-7-6-6-6-6-0-0-0-0-2-2-2-2-|
B|-7-7-7-7-7-7-7-7-0-0-0-0-2-2-2-2-|
G|-8-8-8-8-8-8-8-8-1-1-1-1-3-3-3-3-| X 2
D|-9-9-9-9-8-8-8-8-2-2-2-2-4-4-4-4-|
A|-9-9-9-9-6-6-6-6-2-2-2-2-4-4-4-4-|
E|-7-7-7-7-x-x-x-x-0-0-0-0-2-2-2-2-|

Melody
e|------------------------------------------|
B|----------9-12-9-7-------------9-12-9-7---|
G|-4-6-8-11----------8--4-6-8-11----------4-| X 2
D|------------------------------------------|
A|------------------------------------------|
E|------------------------------------------|

************************************

| x   Dead note

************************************
Suggest correction
comments
print report bad tab
guest
You may want to rate the tab now too:
select rating
Wanna post a correction for this tab? Suggest correction