Oops, an error
Loading. Please wait.

Living Proof intro tab

214 views 21 this week
4 commentsread comments
1 2 3 4 5
x 4
add to favorites
×
Save as Personal and add changes to this tab that will be seen only by you. Learn more ›
×
You can save this tab as Personal to edit and correct it or add notes. All changes will be seen only by you. Learn more »
launch autoscroll
font size
0
reset
how to read this tab
guitar tuner
edit
Autoscroll
slow
fast
+/-
esc
set tempo
stop
[Intro] 
e|----000000000000--0(0)----|----000000000000--0(0)--5/9-|-------------2------2----------------|
B|----333333333333--5/7-----|----333333333333--5/7-------|-------------2------1-------5/7-5----|
G|----222222222222--4/6-----|----222222222222--4/6-------|-------------2------2-------3/5---7--|
D|----000000000000--0(0)----|----000000000000--0(0)------|----------------0--------5-----------|
A|----XXXXXXXXXXXX--X-------|----XXXXXXXXXXXX--X---------|-0-2-3-4-5--(5)----------------------|
E|----XXXXXXXXXXXX--X-------|----XXXXXXXXXXXX--X---------|-------------------------------------|

e|----2---------------------|----------------------------|-------------------------------------|
B|----3---------------------|----------------------------|-------------------------------------|
G|----0-----------2--0------|----------------------------|---0---------------------------------|
D|----0-----------4----4-2--|----0--2/4-2-0---0--2/4-2-0-|--4-4-0----0------------------4------|
A|----2-----------3---------|--2-------------2-----------|-2---------2--------0-0---0-0--------|
E|-0-(0)----------3---------|3--------------2------------|0----------3-------------------------|
 
e|--------------------------|----------------------------|
B|--------------------------|----------------------------|
G|------------7-------------|-----------5-5--4-----------|
D|----------4-------------4-|--------4---------5---------|
A|0-0---0-0-----0-0---0-0--0|----------------------------|
E|--------------------------|----------------------------|



************************************

| (n)  Ghost note
| /    Slide up
 

************************************

            
            
Suggest correction
Creating personal tab
Creating personal tab
You can edit any tab online and save it as your Personal.

You can edit, replace or remove any tab part or add personal notes – all changes will be seen only by you.

Personal tabs can be accessed anytime from any device, even offline.
Learn more »
comments
print report bad tab
4 comments total. Showing first comments.
+1 reply
Kenvii 62 May 15, 2017 08:25 PM

Everything besides a bit of the third measure sounds spot on, great job!

+2 reply
The420Champion 10 Jul 26, 2017 12:49 AM

please make a tab of the main riff! Thanks for what you've got

+1 reply
jacetheexiled 20 Jul 30, 2017 06:26 PM

Hey man,thanks for this intro tab, just playing this is so much fun. In my top ten fav albums for sure. Do you perhaps have any of the rest of the song?

guest
You may want to rate the tab now too:
select rating
Wanna post a correction for this tab? Suggest correction