Oops, an error
Loading. Please wait.

Untitled-Oct19 tab

1,207 views 30 this week
2 commentsread comments
1 2 3 4 5
x 5
add to favorites
×
Save as Personal and add changes to this tab that will be seen only by you. Learn more ›
×
You can save this tab as Personal to edit and correct it or add notes. All changes will be seen only by you. Learn more »
launch autoscroll
font size
0
reset
how to read this tab
guitar tuner
edit
Autoscroll
slow
fast
+/-
esc
set tempo
stop
Author
not 100% accurate, but here to help anyone who needs the rough idea
also note that the original recording is half a semitone out

[Verse 1]

e|---0--0--0--0--0--0--0--0--0--0--0--0--0--0--0--0-------|
B|--1--1--1--1--1--1--1--1--1--1--1--1--1--1--1--1--------|
G|-2--2--2--2--2--2--2--2---------------------------------|     x2
D|-------------------------2--2--2--2--3--3--3--3---------|
A|--------------------------------------------------------|
E|--------------------------------------------------------|    

e|---0--0--0--0--0--0--0--0--0--0--0--0-3--3--3--1--------|
B|--1--1--1--1--1--1--1--1--1--1--1--1---0--0-------------|
G|-0--0--0--0--1--1--1--1--2--2--2--2--0--0---------------|
D|--------------------------------------------------------|
A|--------------------------------------------------------|
E|--------------------------------------------------------|   


[Verse 2] - the same as verse 1

e|---0--0--0--0--0--0--0--0--0--0--0--0--0--0--0--0-------|
B|--1--1--1--1--1--1--1--1--1--1--1--1--1--1--1--1--------|
G|-2--2--2--2--2--2--2--2---------------------------------|     x2
D|-------------------------2--2--2--2--3--3--3--3---------|     
A|--------------------------------------------------------|
E|--------------------------------------------------------|    

e|---0--0--0--0--0--0--0--0--0--0--0--0-3--3--3--1--------|
B|--1--1--1--1--1--1--1--1--1--1--1--1---0--0-------------|
G|-0--0--0--0--1--1--1--1--2--2--2--2--0--0---------------|
D|--------------------------------------------------------|
A|--------------------------------------------------------|
E|--------------------------------------------------------|   


[Outro]

e|---0--0--0--0--0--0--0--0--0--0--0--0--0--0--0--0--------------------------|
B|--1--1--1--1--1--1--1--1--1--1--1--1--1--1--1--1---------------------------|
G|----2-----2-----0-----0-----------0----------------------------------------|
D|-------------------------2--2--2-----3-------------------------------------|
A|-1-----1-----1-----1-------------------------------------------------------|
E|----------------------------------------1--1--1----------------------------|

e|---0--0--0--0--0--0--0--0--0--0--0--0--0--0--0--0--------------------------|
B|--1--1--1--1--1--1--1--1--1--1--1--1--1--1--1--1---------------------------|
G|----2-----2-----0-----0-----------0----------------------------------------|
D|-------------------------2--2--2-----3-------------------------------------|
A|-1-----1-----1-----1-------------------------------------------------------|
E|----------------------------------------1--1--1----------------------------|

e|---0--0--0--0--0--0--0--0--0--0--0--0--0--0--0--0--------------------------|
B|--1--1--1--1--1--1--1--1--1--1--1--1--1--1--1--1---------------------------|
G|----2-----2-----0-----0--------0--0----------------------------------------|
D|-------------------------2--2--------3-------------------------------------|
A|-1-----1-----1-----1-------------------------------------------------------|
E|----------------------------------------1--1--1----------------------------|

e|---0--0--0--0--0--0--0--0--0--0--0--0--0--0--0--0--------------------------|
B|--1--1--1--1--1--1--1--1--1--1--1--1--1--1--1--1---------------------------|
G|----2-----2-----0-----0-----0-----0----------------------------------------|
D|-------------------------2-----2-----3-------------------------------------|
A|-1-----1-----1-----1-------------------------------------------------------|
E|----------------------------------------1--1--1----------------------------|

(fade out with a separate part)
Suggest correction
Creating personal tab
Creating personal tab
You can edit any tab online and save it as your Personal.

You can edit, replace or remove any tab part or add personal notes – all changes will be seen only by you.

Personal tabs can be accessed anytime from any device, even offline.
Learn more »
comments
print report bad tab
2 comments total.
0 reply
nowtryagain 84 Oct 03, 2016 12:22 PM

if anyones got any corrections or youve figured out the outro id really appreciate if you commented, it would help all of us out. thanks.

+1 reply
mayastimson123 10 Oct 26, 2016 07:26 AM

love it!!! now i can tootle away to my favourite song in the whole world.

guest
You may want to rate the tab now too:
select rating
Wanna post a correction for this tab? Suggest correction