Oops, an error
Loading. Please wait.

Violets tab

334 views 18 this week
no commentswrite comment
1 2 3 4 5
2 more votes to show rating
add to favorites
×
Save as Personal and add changes to this tab that will be seen only by you. Learn more ›
×
You can save this tab as Personal to edit and correct it or add notes. All changes will be seen only by you. Learn more »
launch autoscroll
font size
0
reset
how to read this tab
guitar tuner
edit
Autoscroll
slow
fast
+/-
esc
set tempo
stop
About this tab version
Tabbed from Sam's acoustic performance posted on Teen Suicide's Facebook page April 29th, about an hour and a half into the video. Pretty simplistic, but not quite true to the studio version. Was this info helpful? Yes No
[Verse]
e|-----------------------------------------------------------|
B|------------------0-------------1-------1---0--------------|
G|--0-------0-------------2---4---2---------------2-----0h2--|
D|------0-------0-----0-----------2---2-------------0--------|
A|------------------------0-------0--------------------------|
E|--3---------------3----------------------------------------|

e|-----------------------------------------------------------------|
B|----------------------------------0-------0----------------------|
G|----------2-------2-------0---2-------------------0-------0------|
D|------0-------0-------0---------------0-------0-------0-------0--|
A|-----------------------------------------------------------------|
E|--2-------------------------------3------------------------------|

e|-----------------------------------------------------------------|
B|--3-------3-------3-------1---0---1-------1---0------------------|
G|------0-------0-------0-----------2---------------2-------2------|
D|----------------------------------2---2---------------0-------0--|
A|----------------------------------0------------------------------|
E|--1---------------1----------------------------------------------|

e|----------------------------------3-------3-------2-------2------|
B|--------------------------------------3-------3-------3-------3--|
G|----------2-------4-------0-------0-------0-------0-------0------|
D|------0-------0-------0-------0----------------------------------|
A|--2---------------3----------------------------------------------|
E|-----------------------------------------------------------------|

(repeat as desired; such is life)

[Outro]
e|--0------------------------------------|
B|------3---1---0------------------------|
G|------------------2-----------2--------|
D|----------------------5---4---------5--|
A|--3---------------0--------------------|
E|------------------------------------3--|


**********************************

|h   Hammer-on

**********************************

            
            
Suggest correction
Creating personal tab
Creating personal tab
You can edit any tab online and save it as your Personal.

You can edit, replace or remove any tab part or add personal notes – all changes will be seen only by you.

Personal tabs can be accessed anytime from any device, even offline.
Learn more »
Give kudos to tab author, rate the tab!
1 2 3 4 5
comments
print report bad tab
guest
You may want to rate the tab now too:
select rating
Wanna post a correction for this tab? Suggest correction