Oops, an error
Loading. Please wait.

Buen Rock Esta Noche Tab

368 views 1 this week
no commentswrite comment
1 2 3 4 5
3 more votes to show rating
add to favorites
launch autoscroll
font size
0
reset
how to read this tab
guitar tuner
Autoscroll
slow
fast
+/-
esc
set tempo
stop
Help us to improve Ultimate-Guitar.com Take our survey!
×
¡Te!
     E|-3b-0-3b-0-|---------------------|
     B|-2b-0-2b-0-|-0-------------------|
     G|-----------|---2-0---------------|
     D|-----------|-------2-0-----------|
     A|-----------|-----------2-0-------|
     E|-----------|---------------3-0-0-|

 ¡Mmmm!
   E|---------------------------------|
   B|---------------------------------|
   G|---------------------------------|
   D|---------------------------------|
   A|-2-2-2-2-2-2-2-2-2-2-2-2-2-2-2-2-|
   E|-0-0-0-0-0-0-0-0-0-0-0-0-0-0-0-0-|


     E7
Te dijeron ya, hay buen rocanrol esta noche
                                            E|-----0-3-2-0--------------|
                                            B|-0-2---------2-0----------|
                                            G|-----------------2-0------|
                                            D|----------------------2-2-|
                                            A|--------------------------|
                                            E|--------------------------|
     A7                               E7
te dijeron ya, hay buen rocanrol esta noche
                                            E|-----0-3-2-0--------------|
                                            B|-0-2---------2-0----------|
                                            G|-----------------2-0------|
                                            D|----------------------2-2-|
                                            A|--------------------------|
                                            E|--------------------------|
voy a llevar mi chamaca y rocanrolear
pues yo quiero estar con ella a todo dar
     A7            B7                 E7
te dijeron ya, hay buen rocanrol esta noche
                                            E|-3/4-3/4-|-3/4-3/4-|
                                            B|-4/5-4/5-|-4/5-4/5-|
                                            G|---------|---------|
                                            D|---------|---------|
                                            A|---------|---------|
                                            E|---------|---------|
Puente

   E7
E|-0-0-0-0-0-|-7-7-7-7-7-|-12-12-12-12--12-12-15-12-15-12-12-|-
B|-5-5-5-5-5-|-8-8-8-8-8-|-12-12-12-12--12-12-12-12-12-12-12-|-
G|-----------|-----------|-----------------------------------|-
D|-----------|-----------|-----------------------------------|-
A|-----------|-----------|-----------------------------------|-
E|-----------|-----------|-----------------------------------|-

   A7                  E7                  B7        A7        E7
E|-2/3-2/3-|-2/3-2/3-|-3/4-3/4-|-3/4-3/4-|-4/5-4/5-|-4/5-4/5-|-0-------|
B|-1/2-1/2-|-1/2-1/2-|-4/5-4/5-|-4/5-4/5-|-3/4-3/4-|-3/4-3/4-|-0-0-3-0-|
G|---------|---------|---------|---------|---------|---------|-1-------|
D|---------|---------|---------|---------|---------|---------|---------|
A|---------|---------|---------|---------|---------|---------|---------|
E|---------|---------|---------|---------|---------|---------|---------|


¡Yeah vamos al rock!
               E7
            E|-----------------|-
            B|-----------------|-
            G|-----------------|-
            D|---------2-------|-
            A|-----2-4---4-2---|-
            E|-0-4-----------4-|-

¡vamos al rock!
          E7
       E|-----------------|-
       B|-----------------|-
       G|-----------------|-
       D|---------2-------|-
       A|-----2-4---4-2---|-
       E|-0-4-----------4-|-

¡es rock!
    A7
 E|-----------------|-
 B|-----------------|-
 G|---------2-------|-
 D|-----2-4---4-2---|-
 A|-0-4-----------4-|-
 E|-----------------|-

¡vamos al rock!
          E7
       E|-----------------|-
       B|-----------------|-
       G|-----------------|-
       D|---------2-------|-
       A|-----2-4---4-2---|-
       E|-0-4-----------4-|-

          B7        A7                 E7
¡vamos al rock, hay buen rocanrol esta noche!
                                              E|-0-0-0-0-|-0-0-3-0-3-0-0-|
                                              B|-0-0-0-0-|-0-0-0-0-0-0-0-|
                                              G|---------|---------------|
                                              D|---------|---------------|
                                              A|---------|---------------|
                                              E|---------|---------------|

¡Escucha la rola para que encuentres el ritmo!
ricardohdzd@ (100406).
Suggest correction
Give kudos to tab author, rate the tab!
1 2 3 4 5
comments
print report bad tab
guest
You may want to rate the tab now too:
select rating
Wanna post a correction for this tab? Suggest correction