Oops, an error
Loading. Please wait.

El Rock De La Carcel Bass Tab

239 views 1 this week
no commentswrite comment
1 2 3 4 5
3 more votes to show rating
add to favorites
launch autoscroll
font size
0
reset
guitar tuner
Autoscroll
slow
fast
+/-
esc
set tempo
stop
Help us to improve Ultimate-Guitar.com Take our survey!
×
Hola .  Estas es mi primera intervención y lo hago con el bajo.
Pues se escucha bien junto con la canción, ustedes me dirán qué
opinan. Saludos

 --------------------Gat0 jazZ-----------------------------


Los espacios en blanco significanque ahí es donde toca
las 2 veces la batería. es una medida para que no se pierdan.
Estas algunas notaciones dentro de la tablatura:


* Toda esta parte son los versos.
** Aquí es donde entra el coro.
*** Empieza el solo.

*

G||-------|---------------------|-------|---------------------|
D||-------|---------------------|-------|---------------------|
A||-------|---------------------|-------|---------------------|
E||-------|--9----10------------|-------|--9----10------------|


-------|---------------------|-------|---------------------|-------|
-------|---------------------|-------|---------------------|-------|
-------|---------------------|-------|---------------------|-------|
-------|--9----10------------|-------|--9----10------------|-------|


---------------------|-------|---------------------|-------|
---------------------|-------|---------------------|-------|
---------------------|-------|---------------------|-------|
--9----10------------|-------|--9----10------------|-------|


**
----------------------|-----------------------|
-------------------5--|-----7----8----7----5--|
---------3----7-------|-----------------------|
----------------------|-----------------------|


-----------------------|-----------------------|
-----------------------|-----------------------|
-----7--------------5--|-----7----8----7----5--|
----------3----7-------|-----------------------|


-----------------------|-----------------------|
--------------------7--|-----9--------------5--|
----------5----9-------|----------3----7-------|
-----7-----------------|-----------------------|


-----------------------|-----------------------|
-----7-----------------|-----------------------|
--------------------5--|-----7----8----7----5--|
----------3----7-------|-----------------------|

                           *

----------------------|-------|---------------------|-------|
----------------------|-------|---------------------|-------|
----------------------|-------|---------------------|-------|
-----7----3-----------|-------|--9----10------------|-------|


---------------------|-------|---------------------|-------|
---------------------|-------|---------------------|-------|
---------------------|-------|---------------------|-------|
--9----10------------|-------|--9----10------------|-------|


---------------------|-------|---------------------|-------|-------|
---------------------|-------|---------------------|-------|-------|
---------------------|-------|---------------------|-------|-------|
--9----10------------|-------|--9----10------------|-------|-------|

**

----------------------|-----------------------|
-------------------5--|-----7--------------5--|
---------3----7-------|----------3----7-------|
----------------------|-----------------------|


-----------------------|-----------------------|
-----7-----------------|-----------------------|
--------------------5--|-----7----8----7----5--|
----------3----7-------|-----------------------|


-----------------------|-----------------------|
--------------------7--|-----9--------------5--|
----------5----9-------|----------3----7-------|
-----7-----------------|-----------------------|


-----------------------|-----------------------|
-----7-----------------|-----------------------|
--------------------5--|-----7----8----7----5--|
----------3----7-------|-----------------------|

 *

----------------------|-------|---------------------|-------|
----------------------|-------|---------------------|-------|
----------------------|-------|---------------------|-------|
-----7----3-----------|-------|--9----10------------|-------|


---------------------|-------|---------------------|-------|
---------------------|-------|---------------------|-------|
---------------------|-------|---------------------|-------|
--9----10------------|-------|--9----10------------|-------|


---------------------|-------|---------------------|-------|-------|
---------------------|-------|---------------------|-------|-------|
---------------------|-------|---------------------|-------|-------|
--9----10------------|-------|--9----10------------|-------|-------|

**

----------------------|-----------------------|
-------------------5--|-----7--------------5--|
---------3----7-------|----------3----7-------|
----------------------|-----------------------|


-----------------------|-----------------------|
-----7-----------------|-----------------------|
--------------------5--|------7----8----7----5-|
----------3----7-------|-----------------------|


-----------------------|-----------------------|
--------------------7--|-----9--------------5--|
----------5----9-------|----------3----7-------|
-----7-----------------|-----------------------|


-----------------------|-----------------------|
-----7-----------------|-----------------------|
--------------------5--|-----7----8----7----5--|
----------3----7-------|-----------------------|


  ***
-----------------------|-----------------------|
-----------------------|-----------------------|
--------------------5--|-----7----8----7----5--|
-----7----3----7-------|-----------------------|


-----------------------|-----------------------|
-----------------------|-----------------------|
--------------------5--|-----7----8----7----5--|
-----7----3----7-------|-----------------------|


-----------------------|-----------------------|
--------------------7--|-----9--------------5--|
----------5----9-------|----------3----7-------|
-----7-----------------|-----------------------|


-----------------------|-----------------------|
-----7-----------------|-----------------------|
--------------------5--|-----7----8----7----5--|
----------3----7-------|-----------------------|


-----------------------|-----------------------|
--------------------7--|-----9--------------5--|
----------5----9-------|----------3----7-------|
-----7-----------------|-----------------------|


-----------------------|-----------------------|
-----7-----------------|-----------------------|
--------------------5--|-----7----8----7----5--|
----------3----7-------|-----------------------|

*

----------------------|-------|---------------------|-------|
----------------------|-------|---------------------|-------|
----------------------|-------|---------------------|-------|
-----7----3-----------|-------|--9----10------------|-------|


---------------------|-------|---------------------|-------|
---------------------|-------|---------------------|-------|
---------------------|-------|---------------------|-------|
--9----10------------|-------|--9----10------------|-------|


---------------------|-------|---------------------|-------|
---------------------|-------|---------------------|-------|
---------------------|-------|---------------------|-------|
--9----10------------|-------|--9----10------------|-------|

**

---------------------|-------|-------|----------------------|
---------------------|-------|-------|-------------------5--|
---------------------|-------|-------|---------3----7-------|
--9----10------------|-------|-------|----------------------|


-----------------------|-----------------------|
-----7--------------5--|-----7-----------------|
----------3----7-------|--------------------5--|
-----------------------|----------3----7-------|


-----------------------|-----------------------|
-----------------------|--------------------7--|
-----7----8----7----5--|----------5----9-------|
-----------------------|-----7-----------------|


-----------------------|-----------------------|
-----9--------------5--|-----7-----------------|
----------3----7-------|--------------------5--|
-----------------------|----------3----7-------|

*
  .
-----------------------|----------------------|---------------------|
-----------------------|----------------------|---------------------|
-----7----8----7----5--|----------------------|---------------------|
-----------------------|-----7----3-----------|--9----10------------|


-------|---------------------|-------|---------------------|-------|
-------|---------------------|-------|---------------------|-------|
-------|---------------------|-------|---------------------|-------|
-------|--9----10------------|-------|--9----10------------|-------|


---------------------|-------|---------------------|-------|
---------------------|-------|---------------------|-------|
---------------------|-------|---------------------|-------|
--9----10------------|-------|--9----10------------|-------|


---------------------|-------|----------------------|
---------------------|-------|-------------------5--|
---------------------|-------|---------3----7-------|
--9----10------------|-------|----------------------|


  **
-----------------------|-----------------------|
-----7----8----7----5--|-----------------------|
-----------------------|-----7--------------5--|
-----------------------|----------3----7-------|


-----------------------|-----------------------|
-----------------------|--------------------7--|
-----7----8----7----5--|----------5----9-------|
-----------------------|-----7-----------------|


-----------------------|-----------------------|
-----9--------------5--|-----7-----------------|
----------3----7-------|--------------------5--|
-----------------------|----------3----7-------|


-----------------------|-----------------------|
-----------------------|-----------------------|
-----7----8----7----5--|--------------------5--|
-----------------------|-----7----3----7-------|


-----------------------|-----------------------|
-----------------------|-----------------------|
-----7----8----7----5--|--------------------5--|
-----------------------|-----7----3----7-------|


-----------------------|-------------------||
-----------------------|-------------------||
-----7----8----7----5--|-------------------||
-----------------------|-----7----3--------||


Ojalá la disfruten.
Suggest correction
Give kudos to tab author, rate the tab!
1 2 3 4 5
comments
print report bad tab
guest
You may want to rate the tab now too:
select rating
Wanna post a correction for this tab? Suggest correction