Oops, an error
Loading. Please wait.

El Rock De La Carcel Chords

version 3
version 3

Whole song

174 views 1 this week
no commentswrite comment
1 2 3 4 5
3 more votes to show rating
add to favorites
launch autoscroll
font size
0
reset
transpose
0
reset
display chords
guitar tuner
×
Best way to learn
"El Rock De La Carcel"
Autoscroll
slow
fast
+/-
esc
set tempo
stop
TEEN TOPS

El Rock de la Carcel

Vamos a ponerle un poco de estilo Elvis Presley

RIFF 1

   A?  B?
1|-x-|-x-|
2|-3-|-4-|
3|-2-|-3-|
4|-4-|-5-|
5|-5-|-6-|
6|-x-|-x-|

RIFF 2

1|-----------------------------------------------------------------------|
2|-----------------------------------------------------------------------|
3|-----------------------------------------------------------------------|
4|----------2-2-4-2-----------2-2-4-2------------------------------------|
5|--0-0-4-4-----------0-0-4-4------------------2-2-4-2----------2-2-4-2--|
6|-------------------------------------0-0-4-4----------0-0-4-4----------|

1|--------------------------------------------------------------------|
2|--------------------------------------------------------------------|
3|--------------------------------------------------------------------|
4|----------4-4-6-4-----------2-2-4-2---------------------------------|
5|--2-2-6-6-----------0-0-4-4------------------2-2-4-2---------2-2-4--|
6|-------------------------------------0-0-4-4---------0-0-4-4--------|

RIFF 1

Un día hubo una fiesta aquí en la prisión
la orquesta de los presos empezó a tocar
tocaron rockanrol y todo se animó
y un cuate se paró y empezó a cantar el rock

RIFF 2

Todo el mundo a bailar
Todo el mundo en la prisión
Corrieron a bailar el rock


RIFF 1

El gato le sabía dar al saxofón
Guillermo le sonaba duro al trombón
Mario batería se decía tocar
y toda la cárcel se puso a bailar el rock

RIFF 2

Todo el mundo a bailar
Todo el mundo en la prisión
Corrieron a bailar el rock


RIFF 1

El 47 dijo al 23
óyeme mi cuate vamos a bailar
párate volando a rockanrolear
el rock de la cárcel va a comenzar el rock

RIFF 2

Todo el mundo a bailar
Todo el mundo en la prisión
Corrieron a bailar el rock

PUNTEO...

RIFF 1

Un amargado no quiso bailar
Se fue a una rincón y se puso a llorar
Llegó el carcelero y le dijo así
el rock de la cárcel es para gozar el rock

RIFF 2

Todo el mundo a bailar
Todo el mundo en la prisión
Corrieron a bailar el rock


RIFF 1
El ronco dijo al gordo es mi oportunidad
no hay quien me vea y me puedo pelar
tú haz lo que quieras pero yo no voy
pues yo no quiero dejar de bailar el rock

RIFF 2

Todo el mundo a bailar
Todo el mundo en la prisión
Corrieron a bailar el rock
Corrieron a bailar el rock
Corrieron a bailar el rock.

En la parte del final en la que se repite :

Corrieron a bailar el rock
Corrieron a bailar el rock
Corrieron a bailar el rock.

el RIFF 2 es igual, solo que esta parte :

5|--------2-2-4-2--|
6|--0-0-4-4--------|

Se va repitiendo a medida que se repite la letra.
Suggest correction
Give kudos to tab author, rate the tab!
1 2 3 4 5
comments
print report bad tab
guest
You may want to rate the tab now too:
select rating
Wanna post a correction for this tab? Suggest correction