Oops, an error
Loading. Please wait.

La Plaga Bass Tab

266 views 1 this week
no commentswrite comment
1 2 3 4 5
3 more votes to show rating
add to favorites
launch autoscroll
font size
0
reset
guitar tuner
×
Best way to learn
"La Plaga"
Autoscroll
slow
fast
+/-
esc
set tempo
stop
BUENO PUES HAI LES VA  EL BAJEO DE LA PLAGA ESPERO QUE LES GUSTE 
YA QUE ES MI PRIMERA TRANSCRIPCIO 


G-------------------------------------
D---7---------------7-----------------
A-----6-9-------9-6---6-9-------9-6---
E---------6-7-6-----------6-7-6-------


G---5-----------------------------------
D-----4-7--------7-4--7-----------------
A---------4--5-4--------6-9-------9-6---
E--------------------------6-7-6--------


G---7--------5--------------------------
D-----6-9-6----4-7-4--------------------
A---------------------------------------
E---------------------------------------


ASI SE REPITE HASTA QUE DICE MIS JEFES ME DIJERON Y EMPIEZA ESTO


G----------------------------------
D----6-77-6-77-6-77--6-7-----------
A----------------------------------
E----------------------------------

SE VUELVE A REPETIRLO MISMO DE ARRIBA.
ESCUCHENLA BIEN PARA QUE LE DEN LOS TIEMPOS Y LOS PAROS QUE
LLEVA PERO EN SI ESTO ES LO QUE LLEVA.

CUALQUIER DUDA A MI CORREO JUAN_MICTLAN@
Suggest correction
Give kudos to tab author, rate the tab!
1 2 3 4 5
comments
print report bad tab
guest
You may want to rate the tab now too:
select rating
Wanna post a correction for this tab? Suggest correction