Oops, an error
Loading. Please wait.

Lovergirl bass

40 views 3 this week
no commentswrite comment
1 2 3 4 5
3 more votes to show rating
add to favorites
×
Save as Personal and add changes to this tab that will be seen only by you. Learn more ›
×
You can save this tab as Personal to edit and correct it or add notes. All changes will be seen only by you. Learn more »
launch autoscroll
font size
0
reset
guitar tuner
edit
Autoscroll
slow
fast
+/-
esc
set tempo
stop
About this tab version
First bass tab of this song. Was this info helpful? Yes No
[Intro]
   s   s     s    s s s s s s s s s  s s s s s s   s s s s s s s s s  s s s s s s
G|--------------|--------------------------------|--------------------------------|
D|--------------|--------------------------------|--------------------------------|
A|--------------|-------------3h5-3--------------|-------------3h5-3--------------|
E|-17\-1~----3~-|-3h5-3-0-3-5--------3h5-3-0-3-5-|-3h5-3-0-3-5--------3h5-3-0-5-3-|

   s s s s s s s s s  s s s s s s   s s s s s s s s s  s s s s s s s p s p s   s s s s s s s s s s s s s s
G|--------------------------------|----------------------------------x-------|-----------------------------|     
D|--------------------------------|--------------------------------------5---|-----------------------------|
A|-------------3h5-3--------------|-------------3h5-3--------------x---x-----|-----------3h5-3-------------|
E|-3h5-3-0-3-5--------3h5-3-0-3-5-|-3h5-3-0-3-5--------3h5-3-0-3-5---------3-|-5-3-0-3-5-------3h5-3-0-3-5-|

   s s s s s s s s s  s s s s s s  s  s   s s s s s s s s s  s s s s s s   s s s s s s s s s  s s s s s s s
G|--------------------------------------|--------------------------------|-----------------------------------|
D|--------------------------------------|--------------------------------|-----------------------------------|
A|-------------3h5-3--------------------|-------------3h5-3--------------|-------------3h5-3-----------------|
E|-3h5-3-0-3-5--------3h5-3-0-3-5--3--3-|-3h5-3-0-3-5--------3h5-3-0-3-5-|-3h5-3-0-3-5--------3h5-3-0-5-3-17\|

[Verse]
   s s s s s s s s s s s s s s   s s s s s s s s s  s s s s s s
G|-----------------------------|--------------------------------|
D|-----------------------------|--------------------------------|
A|-----------3h5-3-------------|-------------3h5-3--------------|
E|-5-3-0-3-5-------3h5-3-0-3-5-|-3h5-3-0-3-5--------3h5-3-0-5-3-|

   s s s s s s s s s  s s s s s s   s s s s s s s s s  s s s s s s s p s p s 
G|--------------------------------|----------------------------------x-------|   
D|--------------------------------|--------------------------------------5---|
A|-------------3h5-3--------------|-------------3h5-3--------------x---x-----|
E|-3h5-3-0-3-5--------3h5-3-0-3-5-|-3h5-3-0-3-5--------3h5-3-0-3-5---------3-|

[Pre-Chorus]
  s s s s s s s s s  s s s s s   s s s s s s s s s  s s s s s s s   s s s s s s s s s  s s s s s  
G|-----------------------------|----------------------------------|-----------------------------|
D|-----------------------------|----------------------------------|-----------------------------|
A|-----------3h5-3-------------|-------------3h5-3----------------|-----------3h5-3-------------|
E|-5-3-0-3-5-------3h5-3-5-3-5-|-3h5-3-0-3-5--------3h5-3-0-5-3-3-|-5-3-0-3-5-------3h5-3-0-3-5-|

   s s s s s s s s s s s s s s s s    s     s
G|----------------------------------|----------|
D|----------------------------------|----------|
A|-------------3h5-3----------------|----------|
E|-3h5-3-0-3-5-------3h5-3-0-5-3-17\|-1~----3~-|

[Chorus]
   s s s s s s s    s p  s p s p   s s s s s s s    s p  s p s p   s s s p s p   s    s p  s p s p
G|----------------|--------x-----|----------------|--------x-----|------------------|--------x-----|
D|----------------|---3--------5-|----------------|---3--------5-|-------x---x------|---3--------5-|
A|-----------3----|------x---x---|-----------3----|------x---x---|------------------|------x---x---|
E|-5-3-5-3h5---5\-|-1------------|-5-3-5-3h5---5\-|-1------------|-5-3-x---x-----5\-|-1------------| 

   s s s p s p   s    s p  s p s p   s     s
G|------------------|--------x-----|----------|
D|-------x---x------|---3--------5-|----------|
A|------------------|------x---x---|----------|
E|-5-3-x---x-----5\-|-1------------|-1~----3~-| 

[Verse]
   s s s s s s s s s s s s s s   s s s s s s s s s  s s s s s s
G|-----------------------------|--------------------------------|
D|-----------------------------|--------------------------------|
A|-----------3h5-3-------------|-------------3h5-3--------------|
E|-5-3-0-3-5-------3h5-3-0-3-5-|-3h5-3-0-3-5--------3h5-3-0-5-3-|

   s s s s s s s s s  s s s s s s   s s s s s s s s s  s s s s s s s p s p s 
G|--------------------------------|----------------------------------x-------|   
D|--------------------------------|--------------------------------------5---|
A|-------------3h5-3--------------|-------------3h5-3--------------x---x-----|
E|-3h5-3-0-3-5--------3h5-3-0-3-5-|-3h5-3-0-3-5--------3h5-3-0-3-5---------3-|

[Pre-Chorus]
   s s s s s s s s s s s s s s   s s s s s s s s s  s s s s s s s   s s s s s s s s s s s s s s  
G|-----------------------------|----------------------------------|-----------------------------|
D|-----------------------------|----------------------------------|-----------------------------|
A|-----------3h5-3-------------|-------------3h5-3----------------|-----------3h5-3-------------|
E|-5-3-0-3-5-------3h5-3-0-3-5-|-3h5-3-0-3-5--------3h5-3-0-5-3-3-|-5-3-0-3-5-------3h5-3-0-3-5-|

   s s s s s s s s s s s s s s s s    s     s
G|----------------------------------|----------|
D|----------------------------------|----------|
A|-------------3h5-3----------------|----------|
E|-3h5-3-0-3-5-------3h5-3-0-5-3-17\|-1~----3~-|

[Chorus]
   s s s p s p s s    s p  s p s p
G|------------------|--------x-----|
D|-------x---x------|---3--------5-|
A|-------------3----|------x---x---|    (x3)
E|-5-3-x---x-----5\-|-1------------|

   s s s s s s s    s p  s p s p s s   s     s
G|----------------|--------x---------|----------|
D|----------------|---3--------5---x-|----------|
A|-----------3----|------x---x-------|----------|
E|-5-3-5-3h5---5\-|-1------------x---|-1~----3~-|

[Solo]
   s s s s s s s s s s s s s s   s s s s s s s s s  s s s s s s   s s s s s s s s s s s s s s 
G|-----------------------------|--------------------------------|-----------------------------|
D|-----------------------------|--------------------------------|-----------------------------|
A|-----------3h5-3-------------|-------------3h5-3--------------|-----------3h5-3-------------|
E|-5-3-0-3-5-------3h5-3-0-3-5-|-3h5-3-0-3-5--------3h5-3-0-5-3-|-5-3-0-3-5-------3h5-3-0-3-5-|

   s s s s s s s s s  s s s s s s s p s p s   s s s s s s s s s s s s s s
G|----------------------------------x-------|-----------------------------|     
D|--------------------------------------5---|-----------------------------|
A|-------------3h5-3--------------x---x-----|-----------3h5-3-------------|
E|-3h5-3-0-3-5--------3h5-3-0-3-5---------3-|-5-3-0-3-5-------3h5-3-0-3-5-|

   s s s s s s s s s  s s s s s s  s  s   s s s s s s s s s  s s s s s s   s s s s s s s s s  s s s s s s s
G|--------------------------------------|--------------------------------|-----------------------------------|
D|--------------------------------------|--------------------------------|-----------------------------------|
A|-------------3h5-3--------------------|-------------3h5-3--------------|-------------3h5-3-----------------|
E|-3h5-3-0-3-5--------3h5-3-0-3-5--3--3-|-3h5-3-0-3-5--------3h5-3-0-3-5-|-3h5-3-0-3-5--------3h5-3-0-5-3-17\|

   s     s   
G|----------|
D|----------|
A|----------|
E|-1~----3~-|

[Chorus]
   s s s s s s s    s p  s p s p   s s s s s s s    s p  s p s p
G|----------------|--------x-----|----------------|--------x-----|
D|----------------|---3--------5-|----------------|---3--------5-|
A|-----------3----|------x---x---|-----------3----|------x---x---|    (x2)
E|-5-3-5-3h5---5\-|-1------------|-5-3-5-3h5---5\-|-1------------|

   s     s   
G|----------|
D|----------|
A|----------|
E|-1~----3~-|

[Outro]
  s s s s s s s s s  s s s s s   s s s s s s s s s  s s s s s s   s s s s s s s s s s s s s s 
G|-----------------------------|--------------------------------|-----------------------------|
D|-----------------------------|--------------------------------|-----------------------------|
A|-----------3h5-3-------------|-------------3h5-3--------------|-----------3h5-3-------------|
E|-5-3-0-3-5-------3h5-3-0-3-5-|-3h5-3-0-3-5--------3h5-3-0-5-3-|-5-3-0-3-5-------3h5-3-0-3-5-|

   s s s s s s s s s  s s s s s s s p s p s   s s s s s s s s s s s s s s
G|----------------------------------x-------|-----------------------------|     
D|--------------------------------------5---|-----------------------------|
A|-------------3h5-3--------------x---x-----|-----------3h5-3-------------|     (x2)
E|-3h5-3-0-3-5--------3h5-3-0-3-5---------3-|-5-3-0-3-5-------3h5-3-0-3-5-|

   s s s s s s s s s  s s s s s s  s  s   s s s s s s s s s  s s s s s s 
G|--------------------------------------|--------------------------------|
D|--------------------------------------|--------------------------------|
A|-------------3h5-3--------------------|-------------3h5-3--------------|
E|-3h5-3-0-3-5--------3h5-3-0-3-5--3--3-|-3h5-3-0-3-5--------3h5-3-0-3-5-|

  s s s s s s s s s  s s s s s s s p s p s   s s s s s s s s s s s s s s
G|----------------------------------x-------|-----------------------------|     
D|--------------------------------------5---|-----------------------------|
A|-------------3h5-3--------------x---x-----|-----------3h5-3-------------|     (x2)
E|-3h5-3-0-3-5--------3h5-3-0-3-5---------3-|-5-3-0-3-5-------3h5-3-0-3-5-|

   s s s s s s s s s  s s s s s s  s  s   s s s s s s s s s  s s s s s s 
G|--------------------------------------|--------------------------------|
D|--------------------------------------|--------------------------------|
A|-------------3h5-3--------------------|-------------3h5-3--------------|
E|-3h5-3-0-3-5--------3h5-3-0-5-3--x--x-|-3h5-3-0-3-5--------3h5-3-0-3-5-|

  s s s s s s s s s  s s s s s s s p s p s   s s s s s s s s s s s s s s
G|----------------------------------x-------|-----------------------------|     
D|--------------------------------------5---|-----------------------------|
A|-------------3h5-3--------------x---x-----|-----------3h5-3-------------|     
E|-3h5-3-0-3-5--------3h5-3-0-3-5---------3-|-5-3-0-3-5-------3h5-3-0-3-5-|

   s s s s s s s s s  s s s s s s  s  s   s s s s s s s s s  s s s s s s 
G|--------------------------------------|--------------------------------|
D|--------------------------------------|--------------------------------|
A|-------------3h5-3--------------------|-------------3h5-3--------------|       (x2)
E|-3h5-3-0-3-5--------3h5-3-0-3-5--3--3-|-3h5-3-0-3-5--------3h5-3-0-3-5-|


************************************

| x   Dead note
| h   Hammer-on
| \   Slide down
| ~   Vibrato
| s   Slap
| p   Pop

************************************

            
            
Suggest correction
Creating personal tab
Creating personal tab
You can edit any tab online and save it as your Personal.

You can edit, replace or remove any tab part or add personal notes – all changes will be seen only by you.

Personal tabs can be accessed anytime from any device, even offline.
Learn more »
Give kudos to tab author, rate the tab!
1 2 3 4 5
comments
print report bad tab
guest
You may want to rate the tab now too:
select rating
Wanna post a correction for this tab? Suggest correction