Oops, an error
Loading. Please wait.

Mutilate Me Tab

version 1
version 1

Whole song

Interactive

1,692 views 1 this week
1 commentread comment
1 2 3 4 5
please rate
add to favorites
launch autoscroll
font size
0
reset
how to read this tab
guitar tuner
Autoscroll
slow
fast
+/-
esc
set tempo
stop
Help us to improve Ultimate-Guitar.com Take our survey!
×
Author
Difficulty
novice
Mutilate Me by Teenage Bottlerocket one of my favorite songs off the new album

Intro/verse
there's a pause between every chord change
at the ending of the 4th time he does that scratchy thing
e----------------x-x-x-x-x-x--|
B----------------x-x-x-x-x-x--|
G-5--------------x-x-x-x-x-x--|
D-5--77--55--33--x-x-x-x-x-x--| x4
A-3--77--55--33--x-x-x-x-x-x--|
E----55--33--11--x-x-x-x-x-x--|

Before the chorus
e---------------------------------------|
B---------------------------------------|
G-----------55555555--------------------|
D--33333333-55555555-55555555-77777777--| x2
A--33333333-33333333-55555555-77777777--|
E--11111111----------33333333-55555555--|

Chorus
e-------------------------------------|
B-------------------------------------|
G-55555555----------------------------|
D-55555555-55555555-77777777-33333333-| x4
A-33333333-55555555-77777777-33333333-|
E----------33333333-55555555-11111111-|

Solo
background guitar chords are the same as the chorus
e------------------------------------------------------------------|
B------------------------------------------------8-----------------|
G--9-7----7-9-9-7---7-9--9-7----7-9-9-7----7-9--------7-9-7-9-7----|
D------10---------10---------10---------10---------10-----------10-|
A------------------------------------------------------------------|
E------------------------------------------------------------------|

e---------------------------------------------------------------|
B-8--------------------------------------------------8-8--------|
G------7-9-7-9-7-9~--9-7----7-9-9-7----7-9--9-7----7----10-9-7--|
D---10-------------------10---------10----------10--------------|
A---------------------------------------------------------------|
E---------------------------------------------------------------|

e--------------------------------------|
B-8------------------8-----------------|
G------7-9-7-9-7----------7-9-7-9-7-9~-|
D---10-----------10----10--------------|
A--------------------------------------|
E--------------------------------------|
Suggest correction new What's this?
You can suggest a correction to this tab. Community and Mods will review your correction and vote to approve or reject it.
comments
We did not receive enough feedback on this tab! Please rate:
print report bad tab
1 2 3 4 5
1 comment total.
0 reply
RLecompte 42 wrote on August 7 2013, 09:52 pm

Almost perfect! Just 2 strums at this part of the solo. If I could rate 4.5/5 for that incident. Anyways thank you very much sir.
e------------------------------------------------------------------|
B------------------------------------------------8-----------------|
G--9-7----7-9-9-7---7-9--9-7----7-9-9-7----7-9--------7-7-9-7-9-7--|
D------10---------10---------10---------10---------10-----------10-|
A------------------------------------------------------------------|
E------------------------------------------------------------------|

e---------------------------------------------------------------|
B-8--------------------------------------------------8-8--------|
G------7-7-9-7-9-7-9~--9-7----7-9-9-7----7-9--9-7----7----10-9-7|
D---10--------------------10---------10----------10-------------|
A---------------------------------------------------------------|
E---------------------------------------------------------------|

e----------------------------------------|
B-8------------------8-------------------|
G-----7-7-9-7-9-7----------7-7-9-7-9-7-9~|
D---10-----------10----10----------------|
A----------------------------------------|
E----------------------------------------|

guest
You may want to rate the tab now too:
select rating
Please do not post tabs as comments. Select "correction" instead!