Oops, an error
Loading. Please wait.

On My Own Tab

434 views 3 this week
no commentswrite comment
1 2 3 4 5
please rate
add to favorites
launch autoscroll
font size
0
reset
how to read this tab
guitar tuner
Autoscroll
slow
fast
+/-
esc
set tempo
stop
Help us to improve Ultimate-Guitar.com Take our survey!
×
Author
BAND: Tea Naig Bought Ullroc Ett
SONG: Awn Mie owen
ALBM: War Ning Deh Vies

                              ON MY OWN
                              TEENAGE BOTTLEROCKET
tabbed by: Dysentery andy

---intro
e|------------------------|------------------------|
B|------------------------|------------------------|
G|------------------------|------------------------|
D|------------------------|------------------------|  x2
A|-7--6--4--6-4-2--6-4-2--|-7--6--4--6-4-2--6-4-2--|
E|------------------------|------------------------|

---verse
   B                               F#              E
e|-----------------------------------------------------------------|
B|-----------------------------------------------------------------|
G|-4-4-4-4-4-4-4-4-4-4-4-4-4-4-4-4---------------------------------|
D|-4-4-4-4-4-4-4-4-4-4-4-4-4-4-4-4-4-4-4-4-4-4-4-4-2-2-2-2-2-2-2-2-|   x4
A|-2-2-2-2-2-2-2-2-2-2-2-2-2-2-2-2-4-4-4-4-4-4-4-4-2-2-2-2-2-2-2-2-|
E|---------------------------------2-2-2-2-2-2-2-2-0-0-0-0-0-0-0-0-|

I got time to kill to do what I will now that you went away
I nearly lost my mind but now I'm feeling fine.I hope that you're not okay
I didn't know what to tell you. I didn't know what to say to you
But now you're gone and it's on. I'm up all night long 
with friends that wanted to stay

---interlude
e|------------------------|------------------------|
B|------------------------|------------------------|
G|------------------------|------------------------|
D|------------------------|------------------------|  x2
A|-7--6--4--6-4-2--6-4-2--|-7--6--4--6-4-2--6-4-2--|
E|------------------------|------------------------|


---verse 2
   B                               F#              E
e|-----------------------------------------------------------------|
B|-----------------------------------------------------------------|
G|-4-4-4-4-4-4-4-4-4-4-4-4-4-4-4-4---------------------------------|
D|-4-4-4-4-4-4-4-4-4-4-4-4-4-4-4-4-4-4-4-4-4-4-4-4-2-2-2-2-2-2-2-2-|   x4
A|-2-2-2-2-2-2-2-2-2-2-2-2-2-2-2-2-4-4-4-4-4-4-4-4-2-2-2-2-2-2-2-2-|  
E|---------------------------------2-2-2-2-2-2-2-2-0-0-0-0-0-0-0-0-|

I got time to kill to do what I will, now that you went away
I nearly lost my mind but now I'm feeling fine. I hope that you're not okay
I didn't know what to tell you. I didn't know what to say to you
I'm having myself a blast now, thank god I that remember how

---chorus
   G#              E               B
e|-----------------------------------------------------------------|
B|-----------------------------------------------------------------|
G|---------------------------------4-4-4-4-4-4-4-4-4-4-4-4-4-4-4-4-|
D|-6-6-6-6-6-6-6-6-2-2-2-2-2-2-2-2-4-4-4-4-4-4-4-4-4-4-4-4-4-4-4-4-| x2  
A|-6-6-6-6-6-6-6-6-2-2-2-2-2-2-2-2-2-2-2-2-2-2-2-2-2-2-2-2-2-2-2-2-|
E|-4-4-4-4-4-4-4-4-0-0-0-0-0-0-0-0---------------------------------|

Your folks don't know a thing about me
And your friends keep saying that I'm uncool and they're right
   G#              E               B      F#     E
e|-----------------------------------------------------------------|
B|-----------------------------------------------------------------|
G|---------------------------------4--4-4--------------------------|
D|-6-6-6-6-6-6-6-6-2-2-2-2-2-2-2-2-4--4-4-4--4-4-2-2-2-2-2-2-2-2---|
A|-6-6-6-6-6-6-6-6-2-2-2-2-2-2-2-2-2--2-2-4--4-4-2-2-2-2-2-2-2-2---|
E|-4-4-4-4-4-4-4-4-0-0-0-0-0-0-0-0--------2--2-2-0-0-0-0-0-0-0-0---|

I put in overtime to make you mine. convince you not to hate me
   E               F#              B               F#     B  F#
e|---------------------------------------------------------------|
B|---------------------------------------------------------------|
G|---------------------------------4-4-4-4-4-4-4----------4------|
D|---------------------------------4-4-4-4-4-4-4---4-4-4--4--4---|
A|-2-2-2-2-2-2-2-2-4-4-4-4-4-4-4-4-2-2-2-2-2-2-2---4-4-4--2--4---|
E|-0-0-0-0-0-0-0-0-2-2-2-2-2-2-2-2-----------------2-2-2-----2---|
  [pm.............................]

Should've know I'd be better off on my own

---interlude
e|------------------------|------------------------|
B|------------------------|------------------------|
G|------------------------|------------------------|
D|------------------------|------------------------|  x2
A|-7--6--4--6-4-2--6-4-2--|-7--6--4--6-4-2--6-4-2--|
E|------------------------|------------------------|

  On my oh oh oh own..

---verse 3
   B
e|-----------------------------------------------------------------|
B|-----------------------------------------------------------------|
G|-4~--------------------------------------------------------------|
D|-4~--------------------------------------------------------------|
A|-2~--------------------------------------------------------------|
E|-----------------------------------------------------------------|

Now and then I talk to girls again, when they listen to what I say
I think about the time I spent wasted on you and me
   B                               F#              E
e|-----------------------------------------------------------------|
B|-----------------------------------------------------------------|
G|-----------------------------------------------------------------|
D|-4-4-4-4-4-4-4-4-4-4-4-4-4-4-4-4---------------------------------|   
A|-2-2-2-2-2-2-2-2-2-2-2-2-2-2-2-2-4-4-4-4-4-4-4-4-2-2-2-2-2-2-2-2-|  
E|---------------------------------2-2-2-2-2-2-2-2-0-0-0-0-0-0-0-0-|
  [pm.............................................................]
I didn't know what to tell you. I didn't know what to say to you
   B                               F#             
e|------------------------------------|
B|------------------------------------|
G|------------------------------------|
D|-4-4-4-4-4-4-4-4-4-4-4-4-4-4-4-4-4--|   
A|-2-2-2-2-2-2-2-2-2-2-2-2-2-2-2-2-4--|  
E|---------------------------------2--|
  [pm.............................]
I'm better off without you. I hope that things are worse for you


---chorus
   G#              E               B
e|-----------------------------------------------------------------|
B|-----------------------------------------------------------------|
G|---------------------------------4-4-4-4-4-4-4-4-4-4-4-4-4-4-4-4-|
D|-6-6-6-6-6-6-6-6-2-2-2-2-2-2-2-2-4-4-4-4-4-4-4-4-4-4-4-4-4-4-4-4-| x2  
A|-6-6-6-6-6-6-6-6-2-2-2-2-2-2-2-2-2-2-2-2-2-2-2-2-2-2-2-2-2-2-2-2-|
E|-4-4-4-4-4-4-4-4-0-0-0-0-0-0-0-0---------------------------------|

Your folks don't know a thing about me
And your friends keep saying that I'm uncool and they're right
   G#              E               B      F#     E
e|-----------------------------------------------------------------|
B|-----------------------------------------------------------------|
G|---------------------------------4--4-4--------------------------|
D|-6-6-6-6-6-6-6-6-2-2-2-2-2-2-2-2-4--4-4-4--4-4-2-2-2-2-2-2-2-2---|
A|-6-6-6-6-6-6-6-6-2-2-2-2-2-2-2-2-2--2-2-4--4-4-2-2-2-2-2-2-2-2---|
E|-4-4-4-4-4-4-4-4-0-0-0-0-0-0-0-0--------2--2-2-0-0-0-0-0-0-0-0---|

I put in overtime to make you mine. convince you not to hate me
   E               F#              B               E
e|-----------------------------------------------------------------|
B|-----------------------------------------------------------------|
G|-----------------------------------------------------------------|
D|---------------------------------4-4-4-4-4-4-4-4-----------------|
A|-2-2-2-2-2-2-2-2-4-4-4-4-4-4-4-4-2-2-2-2-2-2-2-2-2-2-2-2-2-2-2-2-|
E|-0-0-0-0-0-0-0-0-2-2-2-2-2-2-2-2-----------------0-0-0-0-0-0-0-0-|
  [pm..............................................................]
Should have known I'd be better off on my own
   E               F#              B               
e|-----------------------------------------------------------------|
B|-----------------------------------------------------------------|
G|---------------------------------4-4-4-4-4-4-4-4-4-4-4-4-4-4-4-4-|
D|---------------------------------4-4-4-4-4-4-4-4-4-4-4-4-4-4-4-4-|
A|-2-2-2-2-2-2-2-2-4-4-4-4-4-4-4-4-2-2-2-2-2-2-2-2-2-2-2-2-2-2-2-2-|
E|-0-0-0-0-0-0-0-0-2-2-2-2-2-2-2-2---------------------------------|
  [pm..............................]
Should have known I'd be better off on my own

---outro
   E               F#              B               
e|-----------------------------------------------------------------|
B|-----------------------------------------------------------------|
G|---------------------------------4-4-4-4-4-4-4-4-4-4-4-4-4-4-4-4-|
D|-2-2-2-2-2-2-2-2-4-4-4-4-4-4-4-4-4-4-4-4-4-4-4-4-4-4-4-4-4-4-4-4-|  x3
A|-2-2-2-2-2-2-2-2-4-4-4-4-4-4-4-4-2-2-2-2-2-2-2-2-2-2-2-2-2-2-2-2-|
E|-0-0-0-0-0-0-0-0-2-2-2-2-2-2-2-2---------------------------------|

Should have known I'd be better off on my own
   E               F#              B               F#     B  F#  B
e|------------------------------------------------------------------|
B|------------------------------------------------------------------|
G|---------------------------------4-4-4-4-4-4-4----------4------4--|
D|---------------------------------4-4-4-4-4-4-4---4-4-4--4--4---4--|
A|-2-2-2-2-2-2-2-2-4-4-4-4-4-4-4-4-2-2-2-2-2-2-2---4-4-4--2--4---2--|
E|-0-0-0-0-0-0-0-0-2-2-2-2-2-2-2-2-----------------2-2-2-----2------|

And that's the song. Damn, that was one awesome riff!!!
Don't feel like tabbing but gtr behind the cool riff is:
B G# E F#
Enjoy, me boyos!
Suggest correction
What's this?
You can suggest a correction to this tab. Community and Mods will review your correction and vote to approve or reject it.
comments
We did not receive enough feedback on this tab! Please rate:
print report bad tab
1 2 3 4 5
guest
You may want to rate the tab now too:
select rating
Please do not post tabs as comments. Select "correction" instead!