Oops, an error
Loading. Please wait.

Radio Bass

version 2
version 2

Whole song

  • Correct formatting in verse and chorus and guitar solo.
37 views 1 this week
no commentswrite comment
1 2 3 4 5
x 6
add to favorites
launch autoscroll
font size
0
reset
guitar tuner
×
Best way to learn
"Radio"
Autoscroll
slow
fast
+/-
esc
set tempo
stop
Author
Difficulty
About this tab version
Correct formatting in verse and chorus and guitar solo. Was this info helpful? Yes No
Teenage Bottlerocket
Radio Bass Tab
Album - Total (2005)
Written by Teenage Bottlerocket

Tabbed by stars and stripes

Intro
 
G|--------------------------------------------------------------------------|
D|--------------------------------------------------------------------------|
A|--------------------------------------------------------------------------|
E|--3-----------------------------------------------------------------------|

Chorus x2
 
G|--------------------------------------------------------------------------|
D|--------------------------------------------------------------------------|
A|--------------------3-(x16)--5-(x16)--------------------------------------|
E|--3-(x16)--3-(x16)--------------------------------------------------------|

Verse x4

G|--------------------------------------------------------------------------|
D|--------------------------------------------------------------------------|
A|-----------3-(x8)--5-(x8)-------------------------------------------------|
E|--3-(x16)-----------------------------------------------------------------|

Chorus x2

Verse x3

G|--------------------------------------------------------------------------|
D|--------------------------------------------------------------------------|
A|-----------3-(x8)--5-(x8)-------------------------------------------------|
E|--3-(x16)-----------------------------------------------------------------|

Verse x1

G|--------------------------------------------------------------------------|
D|--------------------------------------------------------------------------|
A|-----------3-(x8)--5-(x1)-------------------------------------------------|
E|--3-(x16)-----------------------------------------------------------------|

Chorus x1

Bridge

G|--------------------------------------------------------------------------|
D|--------------------------------------------------------------------------|
A|--3-(x16)--5-(x16)--3-(x16)--5-(x9)---------------------------------------|
E|--------------------------------------------------------------------------|

Guitar Solo x2

G|--------------------------------------------------------------------------|
D|--------------------------------------------------------------------------|
A|--------------------3-(x16)--5-(x16)--------------------------------------|
E|--3-(x16)--3-(x16)--------------------------------------------------------|

Chorus x2

End

G|--------------------------------------------------------------------------|
D|--------------------------------------------------------------------------|
A|--------------------------------------------------------------------------|
E|--3--------3--------------------------------------------------------------|

Suggest correction
comments
print report bad tab
guest
You may want to rate the tab now too:
select rating
Wanna post a correction for this tab? Suggest correction