Oops, an error
Loading. Please wait.
We have an official Skate Or Die tab made by UG professional guitarists. Check out the tab »
×
3,384 views 9 this week
1 commentread comment
1 2 3 4 5
x 5
add to favorites
×
Save as Personal and add changes to this tab that will be seen only by you. Learn more ›
×
You can save this tab as Personal to edit and correct it or add notes. All changes will be seen only by you. Learn more »
launch autoscroll
font size
0
reset
transpose
0
reset
display chords
guitar tuner
edit
Autoscroll
slow
fast
+/-
esc
set tempo
stop
Strumming
There is no strumming pattern for this song yet. and get +5 IQ
Teenage Bottlerocket
Skate Or Die
They Came From Shadows
2009 Fat Wreck Chords
Submitted by: paramore_fans@yahoo.com

Key: A

Tuning: Standard EADGBe

Chords used:
A -   x02220
E -   022100
F#m - 244222
D -   xx0232


Intro:

Drumbeats:

Then

Ray:
A--D-E- x2

Kody:
e|-------------------------------------------------|
B|-------------------------------------------------|
G|-----6-----6--------9--------6-----6--------9----|
D|-7-9---7-9---9-7-7-----7-7-9---7-9---9-7-7-----7-|
A|-------------------------------------------------|
E|-------------------------------------------------|

e|-----------------------------------------------------------------|
B|-------------------------------------------------7---------------|
G|-----6-----6--------9--------6-----6--------9------9--7--6-------|
D|-7-9---7-9---9-7-7-----7-7-9---7-9---9-7-7-----7------------9--7-|
A|-----------------------------------------------------------------|
E|-----------------------------------------------------------------|


Verse 1:
A
  We're gonna fight
We're gonna win
D
  We're making skate a
        E
fucking threat again
A
  We're on the prowl
For something cool
D
  We're gonna shred
           E
your empty swimming pool
A
  We're doing slappy's
at the Circle K
      D
And I did gnarly boneless
         E                     F#m D E
while my walkman blasts out JFA


Chorus 1:
A
  Don't be a pussy
           E
there's no need to cry
        F#m
So shut up and get rad
    D
cuz now it's time
    E
to skate or die
A
  Yeah you don't even need
            E
to know the reason why
          F#m
Just shut up and get rad
    D
cuz now it's time
    E          A
to skate or die Go!


Post Chorus: Guitar Solo

Ray:
F#m-D-A-E-F#m-D-E--

Kody:
e|----------------------------------------------|
B|----------------------------------------------|
G|-9--------9--7--6----------6----6-------------|
D|----7--------------9--7-9-----7----9--7--6----|
A|-------9------------------------------------7-|
E|----------------------------------------------|

e|-------------------------------------|
B|-------------------------------------|
G|-9--------9--7--6----------6----6--9-|
D|----7--------------9--7-9-----7------|
A|-------9-----------------------------|
E|-------------------------------------|


Ray:
A--D-E- x2

Kody:
e|-------------------------------------------------|
B|-------------------------------------------------|
G|-----6-----6--------9--------6-----6--------9----|
D|-7-9---7-9---9-7-7-----7-7-9---7-9---9-7-7-----7-|
A|-------------------------------------------------|
E|-------------------------------------------------|

e|-----------------------------------------------------------------|
B|-------------------------------------------------7---------------|
G|-----6-----6--------9--------6-----6--------9------9--7--6-------|
D|-7-9---7-9---9-7-7-----7-7-9---7-9---9-7-7-----7------------9--7-|
A|-----------------------------------------------------------------|
E|-----------------------------------------------------------------|


Verse 2:
A
  Mullen's my god
He brings me joy
D
  The second coming
         E
of skate and destroy
A
  Brian was brave
He hit a cop
D
  He won a trip down
       E
at the donut shop
A
  We're waging war against

the posers of the day
      D
If we play our cards
right someday
            E
we might be in the
             F#m D E
Bones Brigade


Chorus 2:
A
  Don't be a pussy
           E
there's no need to cry
        F#m
So shut up and get rad
    D
cuz now it's time
    E
to skate or die
A
  Yeah you don't even need
            E
to know the reason why
          F#m
Just shut up and get rad
    D
cuz now it's time
    E
to skate or die


Outro:
A
  shut up and get rad
cuz now it's time
to skate or die
D                 E
  shut up and get rad
cuz now it's time
to skate or die
(Repeat x4)


End on A(hold)

            
            
Suggest correction
Creating personal tab
Creating personal tab
You can edit any tab online and save it as your Personal.

You can edit, replace or remove any tab part or add personal notes – all changes will be seen only by you.

Personal tabs can be accessed anytime from any device, even offline.
Learn more »
comments
print report bad tab
1 comment total.
0 reply
jjgurzick 10 Aug 22, 2017 01:19 PM

80's live them

guest
You may want to rate the tab now too:
select rating
Wanna post a correction for this tab? Suggest correction