Oops, an error
Loading. Please wait.

120 Mins Bass Tab

13 views 1 this week
no commentswrite comment
1 2 3 4 5
3 more votes to show rating
add to favorites
launch autoscroll
font size
0
reset
guitar tuner
Autoscroll
slow
fast
+/-
esc
set tempo
stop
Help us to improve Ultimate-Guitar.com Take our survey!
×
Author
Difficulty
novice
[Intro]

G|---------------|--------------|--------------|--------------|
D|--4---4--4-----|-4---4--4-----|--------------|-6---6--9-8-6-|
A|-----------4-6-|----------4-6-|------------4-|--------------|
E|---------------|--------------|-7---7--7-7---|--------------|


G|--------------|--------------|--------------|--------------|
D|-4---4--4-----|-4---4--4-----|--------------|-6---6--6-----|
A|----------4-6-|----------4-6-|------------4-|----------4-6-|
E|--------------|--------------|-7---7--7-7---|--------------|


[Verse 1]

G|--------------|--------------|--------------|--------------| (x3)
D|-4---4--4-----|-4---4--4-----|--------------|-6---6--6-----|
A|----------4-6-|----------4-6-|------------4-|----------4-6-|
E|--------------|--------------|-7---7--7-7---|--------------|


G|--------------|--------------|--------------|--------------|
D|-4---4--4-----|-4---4--4-----|--------------|-6---6--6-6-6-|
A|----------4-6-|----------4-6-|------------4-|--------------|
E|--------------|--------------|-7---7--7-7---|--------------|


[Chorus]

G|------6--6---3-|-4--4-3--------|------6--6---3-|-4--4-3--------|
D|-----------6---|---------6-4---|-----------6---|---------6-4---|
A|-4--4----------|-------------6-|-4--4----------|-------------6-|
E|---------------|---------------|---------------|---------------|


G|-----------------|-----------------|-----------------|
D|-----------------|-----------------|-----------------|
A|-----------------|-----------------|-----------------|
E|-2-2-2-2-2-2-2-2-|-2-2-2-2-2-2-2-2-|-2-2-2-2-2-2-2-2-|


[Verse 2]

G|--------------|--------------|--------------|--------------| (x3)
D|-4---4--4-----|-4---4--4-----|--------------|-6---6--6-----|
A|----------4-6-|----------4-6-|------------4-|----------4-6-|
E|--------------|--------------|-7---7--7-7---|--------------|


G|--------------|--------------|--------------|--------------|
D|-4---4--4-----|-4---4--4-----|--------------|-6---6--6-6-6-|
A|----------4-6-|----------4-6-|------------4-|--------------|
E|--------------|--------------|-7---7--7-7---|--------------|


[Chorus]

G|------6--6---3-|-4--4-3--------|------6--6---3-|-4--4-3--------|
D|-----------6---|---------6-4---|-----------6---|---------6-4---|
A|-4--4----------|-------------6-|-4--4----------|-------------6-|
E|---------------|---------------|---------------|---------------|


[Outro]

G|-----------------|-----------------|-----------------|-----------------|
D|-----------------|-----------------|-----------------|-----------------|
A|-----------------|-----------------|-----------------|-----------------|
E|-2-2-2-2-2-2-2-2-|-2-2-2-2-2-2-2-2-|-2-2-2-2-2-2-2-2-|-2-2-2-2-2-2-2-2-|


G|-----------------|-----------------|-----------------|-----------------|
D|-----------------|-----------------|-----------------|-----------------|
A|-----------------|-2-2-2-2-4-4-4-4-|-----------------|-----------------|
E|-2-2-2-2-2-2-2-2-|-----------------|-2-2-2-2-2-2-2-2-|-2-2-2-2-2-2-2-2-|


G|-----------------|-----------------|-----------------|-----------------|
D|-----------------|-----------------|-----------------|-----------------|
A|-2-2-2-2-4-4-4-4-|-----------------|-----------------|-2-2-2-2-4-4-4-4-|
E|-----------------|-2-2-2-2-2-2-2-2-|-2-2-2-2-2-2-2-2-|-----------------|


G|---------1-|
D|-----------|
A|-2-2-2-2---|
E|-----------|



**************************

in regular sequence!

**************************
Suggest correction
Give kudos to tab author, rate the tab!
1 2 3 4 5
comments
print report bad tab
guest
You may want to rate the tab now too:
select rating
Wanna post a correction for this tab? Suggest correction