Oops, an error
Loading. Please wait.

Commercial Alternative Chords

559 views 1 this week
1 commentread comment
1 2 3 4 5
3 more votes to show rating
add to favorites
launch autoscroll
font size
0
reset
transpose
0
reset
display chords
guitar tuner
×
Best way to learn
"Commercial Alternative"
Autoscroll
slow
fast
+/-
esc
set tempo
stop
#----------------------------------PLEASE NOTE---------------------------------#
#This file is the author's own work and represents their interpretation of the #
#song. You may only use this file for private study, scholarship, or research. #
#------------------------------------------------------------------------------##
#

# For the latest collection of Teenage Fanclub chords, go to
# http://www.uark.edu/~cbray/tfc/
#
# If you have any corrections or additions to this file, please email them
# to cbray@comp.uark.edu
#

"Commercial Alternative"

Intro Tab by:  Chris Bray (cbray@comp.uark.edu)
chords  :  Emmanuel Renaud (renaud@lmi.univ-orleans.fr)


Intro:

e--------------------|---------------------|--------------------|
B---9b---9-----------|--9b---9-------------|--9b---9------------|
G------------11--9---|------------11---9---|-----------11---9---|
D--------------------|---------------------|--------------------|
A--------------------|---------------------|--------------------|
E--------------------|---------------------|--------------------|


e----------------------|
B---9b---9-------------|
G------------11--9\7---|
D----------------------|
A----------------------|
E----------------------|


INTRO
D  Bm  Em  A
G  *   A  G  D

* : ?? maybe e -3----|
             B --3---|   3 times

VERSE 1
D       Bm          Em           A
I wanna thank you, cause I'm a mess
G       Em         G           A
I wanna thank you, the way you dress
D       Bm         Em            A
I wanna thank you, for staying here
G       Em         G          A
I wanna thank you, I love you dear

CHORUS
D
Now I know you
G      A#        D
like I know you
C#       Bm    A   G  D  G
like I'm going to

VERSE 2
D       Bm         Em          A
I wanna thank you, for staying cool
G       Em         G           A
I wanna thank you, cause I'm a fool
D       Bm         Em             A
I wanna thank you, where have you been?
G       Em         G           A
I wanna thank you, I love your scene

CHORUS

SOLO ( <=> verse pattern)

CHORUS (ending on A)
Suggest correction
Give kudos to tab author, rate the tab!
1 2 3 4 5
comments
print report bad tab
1 comment total.
0 reply
biscuitsnthat 10 Dec 02, 2009 07:31 AM

I think this is the actual intro riff (or close to it):

e----------------------
B---7b(8)--7---5--3----
G---------------------- x whatever

sounds nice if you play the second F# note as a pinch harmonic like the second time the riff crops up in the song, too.

guest
You may want to rate the tab now too:
select rating
Wanna post a correction for this tab? Suggest correction