Oops, an error
Loading. Please wait.

December Bass Tab

25 views 9 this week
no commentswrite comment
1 2 3 4 5
3 more votes to show rating
add to favorites
launch autoscroll
font size
0
reset
guitar tuner
Autoscroll
slow
fast
+/-
esc
set tempo
stop
Help us to improve Ultimate-Guitar.com Take our survey!
×
Author
Difficulty
novice
Bass Start - 00:12


[Intro]

G|--------|-------------------|-5----|-----------------|------|
D|--------|-2-(3-2-3-2-3)-4/5-|------|-5-(3-2-3-2-3)-5-|------|
A|---3----|-------------------|------|-----------------|-3----|
E|-3------|-------------------|------|-----------------|------|


G|-----------------|-5----|-----------------|
D|-2-(3-2-3-2-3)-5-|------|-5-(3-2-3-2-3)-5-|
A|-----------------|------|-----------------|
E|-----------------|------|-----------------|


[Verse 1] (x2)

G|------|-----------------|-5----|-----------------|------|
D|------|-2-(3-2-3-2-3)-5-|------|-5-(3-2-3-2-3)-5-|------|
A|-3----|-----------------|------|-----------------|-3----|
E|------|-----------------|------|-----------------|------|


G|-----------------|-5----|-----------------|
D|-2-(3-2-3-2-3)-5-|------|-5-(3-2-3-2-3)-5-|
A|-----------------|------|-----------------|
E|-----------------|------|-----------------|


[Verse 1 End]

G|---------------|---------------|-------------|------|
D|--------2-3--5-|-5--5-5-3-2----|-------------|-5----|
A|-5--5-5--------|-------------5-|-5---5-3---3-|------|
E|---------------|---------------|-------------|------|


[Interlude]

G|--------|-----------------|-5----|-----------------|
D|--------|-2-(3-2-3-2-3)-5-|------|-5-(3-2-3-2-3)-5-|
A|---3----|-----------------|------|-----------------|
E|-3------|-----------------|------|-----------------|


[Verse 2] (x2)

G|------|-----------------|-5----|-----------------|------|
D|------|-2-(3-2-3-2-3)-5-|------|-5-(3-2-3-2-3)-5-|------|
A|-3----|-----------------|------|-----------------|-3----|
E|------|-----------------|------|-----------------|------|


G|-----------------|-5----|-----------------|
D|-2-(3-2-3-2-3)-5-|------|-5-(3-2-3-2-3)-5-|
A|-----------------|------|-----------------|
E|-----------------|------|-----------------|


[Verse 2 End]

G|---------------|---------------|-------------|------|
D|--------2-3--5-|-5--5-5-3-2----|-------------|-5----|
A|-5--5-5--------|-------------5-|-5---5-3---3-|------|
E|---------------|---------------|-------------|------|


[Verse 3] 

G|--------|-----------------|-5----|-----------------|------|
D|--------|-2-(3-2-3-2-3)-5-|------|-5-(3-2-3-2-3)-5-|------|
A|---3----|-----------------|------|-----------------|-3----|
E|-3------|-----------------|------|-----------------|------|


G|-----------------|-5----|-----------------|
D|-2-(3-2-3-2-3)-5-|------|-5-(3-2-3-2-3)-5-|
A|-----------------|------|-----------------|
E|-----------------|------|-----------------|


[Chorus] (x2)

G|---------------|---------------|------|-----------------|-5----|-----------------|
D|---------------|---------------|------|-2-(3-2-3-2-3)-5-|------|-5-(3-2-3-2-3)-5-|
A|---------------|---------------|-3----|-----------------|------|-----------------|
E|-3--3--3-3-3-3-|-1--1--1-1-1-1-|------|-----------------|------|-----------------|


[Chorus End]

G|------|-----------------|-5----|-----------------|------|
D|------|-2-(3-2-3-2-3)-5-|------|-5-(3-2-3-2-3)-5-|------|
A|-3----|-----------------|------|-----------------|-3----|
E|------|-----------------|------|-----------------|------|


[Outro 1]

G|------|-----------------|-5----|-----------------|
D|------|-2-(3-2-3-2-3)-5-|------|-5-(3-2-3-2-3)-5-|
A|-3----|-----------------|------|-----------------|
E|------|-----------------|------|-----------------|


G|------|-----------------|-5----|
D|------|-2-(3-2-3-2-3)-5-|------|
A|-3----|-----------------|------|
E|------|-----------------|------|


[Outro 2]

G|------|-----------------|-5----|-----------------|
D|------|-2-(3-2-3-2-3)-5-|------|-5-(3-2-3-2-3)-5-|
A|-3----|-----------------|------|-----------------|
E|------|-----------------|------|-----------------|


G|------|-----------------|-5----|
D|------|-2-(3-2-3-2-3)-5-|------|
A|-3----|-----------------|------|
E|------|-----------------|------|



******************************

| / : slide up
| ( ) : fast

******************************

in regular sequence!
Suggest correction
Give kudos to tab author, rate the tab!
1 2 3 4 5
comments
print report bad tab
guest
You may want to rate the tab now too:
select rating
Wanna post a correction for this tab? Suggest correction