Oops, an error
Loading. Please wait.

Everything Flows Tab

9,686 views 24 this week
2 commentsread comments
1 2 3 4 5
x 12
add to favorites
launch autoscroll
font size
0
reset
how to read this tab
guitar tuner
×
Best way to learn
"Everything Flows"
Autoscroll
slow
fast
+/-
esc
set tempo
stop
#----------------------------------PLEASE NOTE---------------------------------#
#This file is the author's own work and represents their interpretation of the #
#song. You may only use this file for private study, scholarship, or research. #
#------------------------------------------------------------------------------##
#

# For the latest collection of Teenage Fanclub chords, go to
# http://www.uark.edu/~cbray/tfc/
#
# If you have any corrections or additions to this file, please email them
# to cbray@comp.uark.edu
#

"Everything Flows"

Riff by:  Chris Bray (cbray@comp.uark.edu)
Chords by: cmsjdagl@cms.livjm.ac.uk


This is the riff at the beginning that's repeated over and over:

------------------------|
------------------------|
--6-h-7-7-7-7-7-7-7-----|
------------------------|
------------------------|
------------------------|


Riff #2  (towards end of song):
e-----------------------------------------------------------------------|
B-----------------------------------------------------------------------|
G--6-h-7-7-7-7-7-7-7-----10-10-10-10-10---12-12-12-12-12-12-------------|
D-----------------------------------------------------------------------|
A-----------------------------------------------------------------------|
E-----------------------------------------------------------------------|


e--------------------------|
B--------------------------|
G---14-14-14-14---12---10--|
D--------------------------|
A--------------------------|
E--------------------------|

C	Em	F	C
We get  older   every   year
	Am	Em
But   you don't  change
	Am	Em	F	C
Or I don't notice you're  changing
	Em	F	C
I think about it  every  day
	Am	Em	Am	Em
But   only for a little while
	F	C
And then I   feel it

D	F	Am
I'll never   know which way to  flow
	F	Em	F	C
Set a   course that I don't  know

D	F	Am
I'll never   know which way to  flow
	F	Em	F	C
Set a   course that I don't  know

	Em	F	C
The  wind's blowing  in my  face
Am	Em	Am	Em	F	C
Lately find it  hard to   keep the pace
	Em	F	C
And I'm looking for a  place to  go
	Am	Em	Am	Em
But   only for a little while
	F	C
And then I   feel it

D	F	Am
I'll never   know which way to  flow
	F	Em	F	C
Set a   course that I don't  know

D	F	Am
I'll never   know which way to  flow
	F	Em	F	C
Set a   course that I don't  know
Suggest correction
comments
print report bad tab
2 comments total.
0 reply
BoyGoneBad 10 Oct 21, 2008 03:48 AM

Love it- thanks!

0 reply
pete-c 233 Aug 13, 2010 06:40 AM

I'm pretty sure the repeated riff is actually this:

B|---3---3-3-3-3-3
G|---5b--5-5-5-5-5

Just checked a few live videos and tried a few things out and i'm pretty sure it's this, not just one string. Should sound better :]

guest
You may want to rate the tab now too:
select rating
Wanna post a correction for this tab? Suggest correction