Oops, an error
Loading. Please wait.

The Concept Bass Tab

64 views 1 this week
no commentswrite comment
1 2 3 4 5
3 more votes to show rating
add to favorites
launch autoscroll
font size
0
reset
guitar tuner
Autoscroll
slow
fast
+/-
esc
set tempo
stop
Help us to improve Ultimate-Guitar.com Take our survey!
×
Author
Difficulty
novice
Bass Start - 00:15


[Intro]

G|----------------|---------------|---------------|---------------|
D|----------------|---------------|-5--5--5-5-5---|-4--4--4-5-4---|
A|------------2-3-|-5--5--5-5-5-5-|-------------5-|-------------5-|
E|--5--5--5-5-----|---------------|---------------|---------------|


[Verse 1]

G|---------------|---------------|---------------|---------------|
D|-5--5--5-5-5---|-4--4--4-5-4---|---------------|---------------|
A|-------------5-|-------------5-|-7--7--7-7-7-5-|-7--7--7-7-----|
E|---------------|---------------|---------------|-----------8-7-|


G|---------------|---------------|---------------|---------------|
D|---------------|---------------|-5--5--5-5-5---|-5--5--5-5-----|
A|-----------2-3-|-5--5--5-5-5-5-|-------------5-|-----------3-2-|
E|-5--5--5-5-----|---------------|---------------|---------------|


[Chorus]

G|---------------|---------------|---------------|---------------|
D|---------------|-------------5-|-5--5-5-4--4-4-|-2--2--2-2-----|
A|-----------2-3-|-5--5--5-5-7---|---------------|-----------3-2-|
E|-5--5--5-5-----|---------------|---------------|---------------|


G|---------------|---------------|---------------|---------------|
D|---------------|-------------5-|-5--5-5-4--4-4-|-2--2--2-2-2-2-|
A|-----------2-3-|-5--5--5-5-7---|---------------|---------------|
E|-5--5--5-5-----|---------------|---------------|---------------|


G|------------------------------|---------------|---------------|---------------|
D|-------7-7-7----------7-7-7-7-|---------------|---------------|---------------|
A|------------------------------|---------------|-5--5--5-5-5-5-|-5--5--5-5-5-5-|
E|-5--5--------5--5-5-5---------|-5--5--5-5-5-5-|---------------|---------------|



[Verse 2]

G|----------------|---------------|---------------|---------------|
D|-5--------------|-4--4--4-5-4---|---------------|---------------|
A|----------------|-------------5-|-7--7--7-7-7-5-|-7--7--7-7-----|
E|----------------|---------------|---------------|-----------8-7-|


G|---------------|---------------|---------------|---------------|
D|---------------|---------------|-5--5--5-5-5---|-5--5--5-5-5---|
A|-----------2-3-|-5--5--5-5-5-5-|-------------5-|-------------5-|
E|-5--5--5-5-----|---------------|---------------|---------------|


G|---------------|----------------|---------------|----------------|
D|-5--5--5-5-5---|-4--4-4-4-5-4---|-------4-4-4-4-|-5--5-5-7-7-----|
A|-------------5-|--------------5-|-7--7----------|----------------|
E|---------------|----------------|---------------|------------8-7-|


G|---------------|---------------|---------------|---------------|
D|---------------|---------------|-5--5--5-5-5---|-5--5--5-5-----|
A|-----------2-3-|-5--5--5-5-5-5-|-------------5-|-----------3-2-|
E|-5--5--5-5-----|---------------|---------------|---------------|


[Chorus]

G|---------------|---------------|---------------|---------------|
D|---------------|-------------5-|-5--5-5-4--4-4-|-2--2--2-2-----|
A|-----------2-3-|-5--5--5-5-7---|---------------|-----------3-2-|
E|-5--5--5-5-----|---------------|---------------|---------------|


G|---------------|---------------|---------------|---------------|
D|---------------|-------------5-|-5--5-5-4--4-4-|-2--2--2-2-2-2-|
A|-----------2-3-|-5--5--5-5-7---|---------------|---------------|
E|-5--5--5-5-----|---------------|---------------|---------------|


G|------------------------------|---------------|---------------|----------------|
D|-------7-7-7----------7-7-7-7-|---------------|---------------|------------5---|
A|------------------------------|---------------|-5--5--5-5-5-5-|-5--5-5-5-7---7-|
E|-5--5--------5--5-5-5---------|-5--5--5-5-5-5-|---------------|----------------|


[Instrumental]

G|---------------|---------------|---------------|---------------|
D|-5--5--5-5-5---|-4--4--4-5-4---|---------------|---------------|
A|-------------5-|-------------5-|-7--7--7-7-7-5-|-7--7--7-7-----|
E|---------------|---------------|---------------|-----------8-7-|


G|----------------|---------------|---------------|---------------|
D|----------------|---------------|-5--5--5-5-5---|-4--4--4-5-4---|
A|------------2-3-|-5--5--5-5-5-5-|-------------5-|-------------5-|
E|--5--5--5-5-----|---------------|---------------|---------------|


G|---------------|---------------|---------------|----------------|
D|-5--5--5-5-5---|-4--4--4-5-4---|-------4-4-4-4-|-5--5-5-7-7-----|
A|-------------5-|-------------5-|-7--7----------|----------------|
E|---------------|---------------|---------------|------------8-7-|


G|---------------|---------------|---------------|---------------|
D|---------------|-------------5-|-5--5--5-5-5---|-5--5--5-5-----|
A|-----------2-3-|-5--5--5-5-7---|-------------5-|-----------3-2-|
E|-5--5--5-5-----|---------------|---------------|---------------|


[Chorus]

G|---------------|---------------|---------------|---------------|
D|---------------|-------------5-|-5--5-5-4--4-4-|-2--2--2-2-----|
A|-----------2-3-|-5--5--5-5-7---|---------------|-----------3-2-|
E|-5--5--5-5-----|---------------|---------------|---------------|


G|---------------|---------------|---------------|---------------|
D|---------------|-------------5-|-5--5-5-4--4-4-|-2--2--2-2-2-2-|
A|-----------2-3-|-5--5--5-5-7---|---------------|---------------|
E|-5--5--5-5-----|---------------|---------------|---------------|


G|---------------|----------------|
D|---------------|----------------|
A|-5--5--5-5-5-5-|-5--------------|
E|---------------|----------------|


[Instrumental]

G|-----------|-4--------|----------|---------------|
D|--5--------|----------|-2------0-|-2-0-2--0------|
A|-----------|----------|----------|-----------3-2-|
E|-----------|----------|----------|---------------|


G|----------|----------|---------|------------|--------|-------------|
D|----------|----------|---------|------------|--------|-------------|
A|----------|----------|-3----3--|--3----3----|-3------|--5--3--2--3-|
E|-5------5-|-3------3-|---------|----------3-|--------|-------------|


G|----------|----------|----------|--------------|
D|----------|-5------5-|----------|--------------|
A|----------|----------|-3--------|--3----3-2-0--|
E|-5------5-|----------|----------|--------------|


G|----------|--------|--------|--------|
D|----------|--------|--------|--------|
A|----------|--------|--------|--------|
E|--3----3--|--x--3--|--3--3--|--3--3--|


[Instrumental]

G|-----------|-4------4-|------------|---------------|
D|--5--------|----------|-2----2---0-|-2-0-2--0------|
A|-----------|----------|------------|-----------3-2-|
E|-----------|----------|------------|---------------|


G|----------|----------|----------|--------------|---------------|
D|----------|----------|----------|--------------|---------------|
A|----------|----------|-3--------|-----3------3-|-3-------------|
E|-5------5-|-3------3-|----------|-3-5----3-5---|---------------|


G|-------------|----------|----------|----------------|----------------|
D|-------------|----------|-5------5-|----------------|----------------|
A|--5--3--2--3-|----------|----------|-3--------------|-------3--5-----|
E|-------------|-5------5-|----------|----------------|-------------3--|


[Instrumental]

G|-----------|-4------4-|------------|---------------|
D|--5------5-|----------|-2----2---0-|-2-0-2--0------|
A|-----------|----------|------------|-----------3-2-|
E|-----------|----------|------------|---------------|


G|----------|----------|---------|--------------|---------------|
D|----------|----------|---------|--------------|---------------|
A|----------|----------|-3----3--|-----3------3-|-3-------------|
E|-5------5-|-3------3-|---------|-3-5----3-5---|---------------|


G|-------------|----------|----------|----------------|----------------|
D|-------------|----------|-5------5-|----------------|----------------|
A|--5--3--2--3-|----------|----------|-3--------------|---------3-2-0--|
E|-------------|-5------5-|----------|----------------|----------------|


G|--------|--------|--------|--------|
D|--------|--------|--------|--------|
A|--------|--------|--------|--------|
E|--3-----|--3--3--|--3--3--|--3--3--|


[Instrumental]

G|-----------|-4------4-|------------|---------------|
D|--5------5-|----------|-2----2---0-|-2-0-2--0------|
A|-----------|----------|------------|-----------3-2-|
E|-----------|----------|------------|---------------|


G|----------|----------|---------|--------------|---------------|
D|----------|----------|---------|--------------|---------------|
A|----------|----------|-3-------|-----3------3-|-3-------------|
E|-5------5-|-3------3-|---------|-3-5----3-5---|---------------|


G|-------------|----------|----------|----------------|---------------|
D|-------------|----------|----------|----------------|---------------|
A|--5--3--2--3-|----------|----------|-3--------------|----------3--5-|
E|-------------|-5------5-|-3------3-|----------------|---------------|


G|-0----0--|-----0--0--|-----------|--------------|
D|---------|--5--------|-----5--5--|--5--5--5-----|
A|---------|-----------|-----------|-----------5--|
E|---------|-----------|--3--------|--------------|


[Outro]

G|-----------|-4------4-|------------|---------------|
D|--5------5-|----------|-2----0---0-|-2-0-2--0------|
A|-----------|----------|------------|-----------3-2-|
E|-----------|----------|------------|---------------|

                                                      (fade out)
G|----------|----------|---------|--------------|---------------|
D|----------|----------|---------|--------------|---------------|
A|----------|----------|-3-------|-----3------3-|-3-------------|
E|-5------5-|-3------3-|---------|-3-5----3-5---|---------------|



*********************

| x : dead note

*********************

in regular sequence!
Suggest correction
Give kudos to tab author, rate the tab!
1 2 3 4 5
comments
print report bad tab
guest
You may want to rate the tab now too:
select rating
Wanna post a correction for this tab? Suggest correction