Oops, an error
Loading. Please wait.

Laklak Tab

version 1
version 1

Solo

Whole song

Interactive

70 views 6 this week
no commentswrite comment
1 2 3 4 5
3 more votes to show rating
add to favorites
launch autoscroll
font size
0
reset
how to read this tab
guitar tuner
Autoscroll
slow
fast
+/-
esc
set tempo
stop
Help us to improve Ultimate-Guitar.com Take our survey!
×
Author
Difficulty
Tuning
novice
D# G# C# F# A# D#
[Guitar Solo]

e|-------------------------------------------------------------| 2x
B|-------------------------------------------------------------|
G|----9/11-11\9—-9/11-11\9—-9/11-11\9-9-9----------------------|
D|----9/11-11\9—-9/11-11\9—-9/11-11\9-9-9----------------------|
A|-------------------------------------------------------------|
E|-------------------------------------------------------------|

e|---------10\7-7-7-7\5-5-5-5/7-7------------------------------|
B|----5/10-10\7-7-7-7\5-5-5-5/7-7------------------------------|
G|--------------------------------\11--------------------------|
D|--------------------------------\11--------------------------|
A|-------------------------------------------------------------|
E|-------------------------------------------------------------|

e|-------------------------------------------------------------|
B|-------------------------------------------------------------|
G|----11\9-9/11-11/14-14\11-11\9-9/11-11-11--------------------|
D|----11\9-9/11-11/14-14\11-11\9-9/11-11-11--------------------|
A|-------------------------------------------------------------|
E|-------------------------------------------------------------|
Suggest correction
Give kudos to tab author, rate the tab!
1 2 3 4 5
comments
print report bad tab
guest
You may want to rate the tab now too:
select rating
Wanna post a correction for this tab? Suggest correction