Oops, an error
Loading. Please wait.

Prinsesa Tab

version 3
version 3

Whole song

Interactive

9,223 views 15 this week
2 commentsread comments
1 2 3 4 5
please rate
add to favorites
launch autoscroll
font size
0
reset
how to read this tab
guitar tuner
Tab Pro tools
  • play this tab
  • loop segment
  • change instrument
  • show fretboard
  • metronome
×
Best way to learn
"Prinsesa"
Autoscroll
slow
fast
+/-
esc
set tempo
stop
m/ Hello Everybody \m/


Im Rey Anthony Silva. Ako ang lead ng aming band. Sa Pasig Catholic College ako
nag-aaral kasama ng iba kong bandma8tes.

Lead: Ako
Rhythm: Andreu 
Bass: Bogus
Drum: Judd
Vocal: Gian    

 Im 90% sure about this ^_^ wakekekke. 

SANA MAGUSTUHAN NYO!!!! \m/ RocK oN \m/




Intro:

D    C#    C    G
|--------------------|     ß---- pang Rhythm e2...
|--------------------|
|-7----7----5--------|                  
|-7----7----5----5---|
|-5----4----3----5---|
|----------------3---|

For lead:  1st-4th string only!
D-D7-C-G



|------------6-7-------|-------6-7-----|
|---7-7---7------7-7---|-----7-----7---|
|-------6--------------|---6-----------|   7x nyo gawin
|----------------------|---------------|
|----------------------|---------------|
|----------------------|---------------|

Verse:
  D    C#    C    G
|--------------------|
|--------------------|
|-7----7----5--------|
|-7----7----5----5---|
|-5----4----3----5---|
|----------------3---|






 Chorus:

Dalhin mo ko, sa iyong palasyo.....
   A     D
|----------|
|----------|
|-------7--|
|--7----7--|
|--7----5--|
|--5-------|


ADLIB:
|------------6-7-------|-------6-7-----|
|---7-7---7------7-7---|-----7-----7---|
|-------6--------------|---6-----------|   7x nyo gawin
|----------------------|---------------|
|----------------------|---------------|
|----------------------|---------------|

|---------------12-13-------|-------12-13-------|
|---13-13----13-------12-12-|-----13-----12-12--|
|---------12----------------|---12--------------|   7x nyo gawin
|---------------------------|-------------------|
|---------------------------|-------------------|
|---------------------------|-------------------|

Oh aking prinsesa |  ha-a-ah    
e|-----------------|------------|
B|-----------------|------------|
G|----4------------|----x-------|
D|----5------------|----5-------|
A|----5------------|----5-------|
E|----3------------|----3-------|

CODA:
Prinsesa, prinsesa    Prinsesa, a-ha-ah... (Fade)               


Yun lng!!!! ^_^ sana magustuhan nyo!!! ^_^   

 Any comments  and suggestion?

Add nyo na lng me sa friendster   ra_anthony18@yahoo.com at ra_my2nd_acc@yahoo.com.
Messagen nyo na lng me dun uki ^_^ tnx!
comments
We did not receive enough feedback on this tab! Please rate:
print report bad tab
1 2 3 4 5
2 comments total.
0 reply
bonus_viii wrote on February 12 2006, 05:36 am

pare, mali yung lead mo..

0 reply
chamir wrote on November 14 2006, 08:53 am

i play the lead like this....

1st:
]--777--9--11--7--777--9--11--7-777--9--11--9--11--9--
]-----------------------------------------------------
]-----------------------------------------------------
]-----------------------------------------------------
]-----------------------------------------------------
]-----------------------------------------------------

2nd:
]--15-15-15--17--19--15-15-15--17--19--15-15-15--17--19--17--19--17--
]--------------------------------------------------------------------
]--------------------------------------------------------------------
]--------------------------------------------------------------------
]--------------------------------------------------------------------
]--------------------------------------------------------------------

only on the 1st string...

I want to post or [tab]
guest
You may want to rate the tab now too:
select rating
Please do not post tabs as comments. Select "correction" instead!