Oops, an error
Loading. Please wait.

Tugtugan Na Tab

1,469 views 3 this week
no commentswrite comment
1 2 3 4 5
1 last vote to show rating
add to favorites
launch autoscroll
font size
0
reset
how to read this tab
guitar tuner
Autoscroll
slow
fast
+/-
esc
set tempo
stop
Help us to improve Ultimate-Guitar.com Take our survey!
×
                     "TUGTUGAN NA" BY TEETH
                      transcribed by:freon
                visit me at: freongang_81@yahoo.com
                      freongang_08@yahoo.com


    NOTE: sa mga nagpaparequest ng tab,,, salamat sa tiwala nyo sa akn
              salamats salamat....     


  intro:  X2              X2                X2             X2
e|---------------  ----------------  ---------------  --------------|
B|-(let ring)----  -(let ring)-----  -(let ring)----  -(let ring)---|
G|-5--5------2-2-  -5--5-------6-6-  -5--5------2-2-  -5--5-----6-6-|
D|-5--5------2-2-  -5--5-------6-6-  -5--5------2-2-  -5--5-----6-6-|
A|-3--3------0-0-  -3--3-------0-0-  -3--3------0-0-  -3--3-----0-0-|
E|---------------  ----------------  ---------------  --------------|

 tugtugan na...
e|------------------------------------------------------|
B|------------------------------------------------------|
G|------------------------------------------------------|
D|-2-2-2-2-2-6-6-5-5-5-5-----2-2-2-2-2-12-12-12-12-12---|
A|-2-2-2-2-2-6-6-5-5-5-5-----2-2-2-2-2-12-12-12-12-12---|
E|-0-0-0-0-0-4-4-3-3-3-3-----0-0-0-0-0-10-10-10-10-10---|

 ito na ang ating musika... X2
e|----------------------------------------------------------|
B|----------------------------------------------------------|
G|----------------------------------------------------------|
D|-------------5-5-5-5-5-5-9-9-9-9-9-9-10-10-10-10-10-10----|
A|-9-9-9-9-9-9-3-3-3-3-3-3-7-7-7-7-7-7-8--8--8--8--8--8-----|
E|-7-7-7-7-7-7----------------------------------------------|

 solo: W/WAH
e|------------------------------15-13-12----------|
B|-12b-12b----------15-13-12-------------13-------|
G|-11b-11b-11b-11b-----------13--------------12---|
D|---------10b-10b--------------------------------|
A|------------------------------------------------|
E|------------------------------------------------|

e|----------------------------------------------------------------------|
B|-12h15-12h15-12h15-12h15-12h15--17b-15--------------------------------|
G|---------------------------------------15h17-15h17-15h17-15h17-15h17--|
D|----------------------------------------------------------------------|
A|----------------------------------------------------------------------|
E|----------------------------------------------------------------------|

e|--------------------------------------------------|
B|-14h16-14h16-14h16-14h16-14h16-14h16-14h16-14h16--|
G|--------------------------------------------------|
D|--------------------------------------------------|
A|--------------------------------------------------|
E|--------------------------------------------------|

e|-12b-12b------------------------------------|
B|-12b-12b-15-13-12------------13-12----------|
G|-12b-12b----------13--12--14-------15-14----|
D|--------------------------------------------|
A|--------------------------------------------|
E|--------------------------------------------|

e|-------14-13-------------------------------------------------|
B|-12-13-------14h16-14h16-14h16-14h16-------------------------|
G|-------------------------------------15h17-15h17-15h17-15h17-|
D|-------------------------------------------------------------|
A|-------------------------------------------------------------|
E|-------------------------------------------------------------|

e|-------------------------------------------------------------|
B|-------------14h16-14h16-14h16-14h16-------------------------|
G|-------------------------------------15h17-15h17-15h17-15h17-|
D|-------------------------------------------------------------|
A|-------------------------------------------------------------|
E|-------------------------------------------------------------|

e|------------------------------------------|
B|-14h16-14h16-14h16-14h16------------------|
G|-------------------------17-15-13---------|
D|----------------------------------15b-----|
A|------------------------------------------|
E|------------------------------------------|

                             freongang
Suggest correction
Give kudos to tab author, rate the tab!
1 2 3 4 5
comments
print report bad tab
guest
You may want to rate the tab now too:
select rating
Wanna post a correction for this tab? Suggest correction