Oops, an error
Loading. Please wait.

Alligator Chords

version 1
version 1

Acoustic

50,100 views 30 this week
3 commentsread comments
1 2 3 4 5
excellent!
x 9
add to favorites
launch autoscroll
font size
0
reset
transpose
0
reset
display chords
guitar tuner
Autoscroll
slow
fast
+/-
esc
set tempo
stop
Help us to improve Ultimate-Guitar.com Take our survey!
×
Author
This is the chords for the acoustic version played at peak radio,
if you havent heard it yet clicko el linko below...o

http://www.youtube.com/watch?v=XbwmL6POQ0k

Sounds about right not to sure about the Em chord thou. Anyone care to tab Shauns bass part?


Verse

  F   G   A
e-----------------------|
b-----------------------|
g-----------------------|
d--3---5--7-------------|
a--3---5--7-------------|
e--1---3--5-------------|

run around on me sooner die without....

  F   G   Em? F
e-------------------------|
b-------------------------|
g-------------------------|
d--3---5---2--3-----------|
a--3---5---2--3-----------|
e--1---3------1-----------|
Suggest correction
comments
print report bad tab
3 comments total.
0 reply
fargo1597 104 wrote on March 17 2010, 07:32 am

That Em is an octive, I think. Try it out see if its correct.

F G Em F
e-------------------------|
b-------------------------|
g----------4--------------|
d--3---5---x--3-----------|
a--3---5---2--3-----------|
e--1---3------1-----------|

0 reply
shae687 71 wrote on April 5 2010, 02:30 pm

I think fargo1597 has it right. In the video you can see Sara hit the Em.

0 reply
nixhex_311 10 wrote on April 24 2012, 11:03 am

Wow what is this? I think you have this song confused with another.

guest
You may want to rate the tab now too:
select rating
Wanna post a correction for this tab? Suggest correction