Oops, an error
Loading. Please wait.

Back In Your Head Bass Tab

9,239 views 3 this week
1 commentread comment
1 2 3 4 5
x 10
add to favorites
launch autoscroll
font size
0
reset
guitar tuner
Autoscroll
slow
fast
+/-
esc
set tempo
stop
Help us to improve Ultimate-Guitar.com Take our survey!
×
Author
Difficulty
novice
-------------------------------------------------------------------------------
			     Back In Your Head - Tegan and Sara
-------------------------------------------------------------------------------

Tabbed By : Amberly F.

INTRO:
G|-------------------------------------------------|
D|-------------------------------------------------|
A|------3-11------3-11------3-11------3-11-1-------|
E|-1-11------1-11------1-11------1-11--------------|

**NO BASS TIL CHORUS**

CHORUS:
G|--------------------------|
D|--------------------------|  
A|------3-3-1-1------33-11--|   X2
E|-1-11---------1-11--------|

G|------------------------------|
D|---------------------1010-88--|
A|------3-3-1-1--8-88-----------|  (those are 10s)
E|-1-11-------------------------|

G|------------------|
D|-7---5---00---3---|
A|---5---3----0-----|  X4
E|------------------|

2ND VERSE:
G|------------------------------|
D|------------------------------|
A|-5-55--5-55--7-3-33--3-33-3---|
E|------------------------------|

G|------------------------------|
D|------------------------------|
A|-5-55--5-55-7--8-88--8-88-7---|
E|------------------------------|

G|------------------------------|
D|------------------------------|
A|-5-55--5-55-7--3-33--3-33-7---|
E|------------------------------|

G|------------------------------|
D|------------------------------|
A|-5-55--5-55-7--8-88--8-88-7---|
E|------------------------------|

CHORUS 2:
G|---------------------------|
D|---------------------------|
A|------3-3-1-1------33-11---|  X3
E|-1-11---------1-11---------|

G|-----------------|
D|-7---5---00---3--|
A|---5---3----0----|
E|-----------------|

"Run, run, run.."
G|---------------|
D|---------------|
A|-3-33-3-5-55-5-|  
E|---------------|

G|-----|
D|-----|
A|-88--|
E|-----|

CHORUS 3/ OUTRO
G|-------------|
D|-------------|
A|------33-11--|  X3
E|-1-11--------|

G|----------------|
D|----------------|
A|-------3-3-1-1--|  X3
E|-1-11-----------|

G|----------------|
D|----------------|
A|------3-3-1-----|
E|-1-11-----------|


| /  slide up
| \  slide down
| h  hammer-on
| p  pull-off
| ~  vibrato
| +  harmonic
| x  Mute note
===============================================================================
Suggest correction
comments
print report bad tab
1 comment total.
+1 reply
GKV123 10 Mar 05, 2012 09:40 PM

I have a fix for you in this tab occurring at 2:03 in the track ("When I get a little scared") Ive worked out what I believe it should read as follows:

e----------------------------------------------|
D---19----17-----------------------------------|
A-----17----15----1717----17--15/17------------|
E---------------------17-----------------------|
(x3)

e----------------------------------------------|
D---19----17-----------------------------------|
A-----17----15----1717----17--15\3-------------|
E---------------------17-----------------------|
(x1)
then SECOND VERSE

Let me know what you think of it.

I tried very hard to make it sound as close as I could to the original recording. It took a few loops to get it that far and I'm not sure if there's any more to it.

Cheers!
GKV123

guest
You may want to rate the tab now too:
select rating
Wanna post a correction for this tab? Suggest correction