Oops, an error
Loading. Please wait.

Back In Your Head Tab

version 3
version 3

Whole song

12,919 views 3 this week
4 commentsread comments
1 2 3 4 5
worth learning
x 4
add to favorites
launch autoscroll
font size
0
reset
how to read this tab
guitar tuner
Autoscroll
slow
fast
+/-
esc
set tempo
stop
Help us to improve Ultimate-Guitar.com Take our survey!
×
Author
Difficulty
intermediate
All the tabs are terrable-ish.
I thought id try to make one
:]


Intro:
|----------------------|
|-10-10-8-8--5-5--6-6--|
|----------------------|
|--7-7--5-5--2-2--3-3--|
|----------------------|
|----------------------|

Verse:
(Build a wall of books...)
|------------------------------------------|
|--2-2--2-2--2-2--2-2--5-5--5-5--5-5--5-5--|
|------------------------------------------|
|------------------------------------------|
|--4-4--4-4--4-4--4-4--2-2--2-2--2-2--2-2--|
|------------------------------------------|

chorus:
(I just walk back in your head...)
|----------------------|
|-10-10-8-8--5-5--6-6--|
|----------------------|
|--7-7--5-5--2-2--3-3--|
|----------------------|
|----------------------|

Post chorus :
(When I get a little scared...)
|------------------------------------------|
|------------------------------------------|
|--6-6--6-6--6-6--6-6--3-3--3-3--3-3--3-3--|
|--6-6--6-6--6-6--6-6--3-3--3-3--3-3--3-3--|
|--4-4--4-4--4-4--4-4--1-1--1-1--1-1--1-1--|
|------------------------------------------|

|------------------------------------------|
|------------------------------------------|
|--4-4--4-4--6-6--6-6--3-3--3-3--3-3--3-3--|
|--4-4--4-4--6-6--6-6--3-3--3-3--3-3--3-3--|
|--2-2--2-2--4-4--4-4--1-1--1-1--1-1--1-1--|
|------------------------------------------|

Post chorus 2:
|------------------------------------------|
|------------------------------------------|
|--6-6--6-6--6-6--6-6--3-3--3-3--3-3--3-3--|
|--6-6--6-6--6-6--6-6--3-3--3-3--3-3--3-3--|
|--4-4--4-4--4-4--4-4--1-1--1-1--1-1--1-1--|
|------------------------------------------|

|------------------------------------------|
|------------------------------------------|
|--6-6--6-6--6-6--6-6--3-3--3-3--3-3--3-3--|
|--6-6--6-6--6-6--6-6--3-3--3-3--3-3--3-3--|
|--4-4--4-4--4-4--4-4--1-1--1-1--1-1--1-1--|
|------------------------------------------|

Bridge:
(Run, run, run...)
|------------------------------------------|
|------------------------------------------|
|--4-4--4-4--6-6--6-6--3-3--3-3--3-3--3-3--|
|--4-4--4-4--6-6--6-6--3-3--3-3--3-3--3-3--|
|--2-2--2-2--4-4--4-4--3-3--3-3--3-3--3-3--|
|------------------------------------------|

Order:
-Intro (x4)
-Verse (x4)
-Chorus (x6)
-Post-Chorus
-Verse (x4)
-Chorus (x6)
-Post-Chorus 2
-Bridge (x2)
-Chorus (x8)
Suggest correction
comments
print report bad tab
4 comments total. Showing first comments.
0 reply
girl-tarist 157 wrote on February 18 2008, 02:24 am

I don't understand this tab.

0 reply
axe_wielder 10 wrote on July 24 2008, 04:05 am

horrible. i mean simply deplorable! this is absolutely unspeakable rubbish. maybe try another instrument?

0 reply
iwysashes 10 wrote on May 10 2013, 06:57 pm

wtf is that? this is one of the worst tabs out there. people can yell at me now to make it better; i cant thats why i dont post any horrible tabs bc i cant really make them! and i wouldnt want to shove 'my wrong way' of playing it down peoples throats.

guest
You may want to rate the tab now too:
select rating
Wanna post a correction for this tab? Suggest correction