Oops, an error
Loading. Please wait.

Burn Your Life Down Bass Tab

1,291 views 1 this week
no commentswrite comment
1 2 3 4 5
2 more votes to show rating
add to favorites
launch autoscroll
font size
0
reset
guitar tuner
Autoscroll
slow
fast
+/-
esc
set tempo
stop
Help us to improve Ultimate-Guitar.com Take our survey!
×
Author
Burn Your Life Down
Tegan and Sara
The Con

Bass; Stardard Tuning

Verse: no bass

Pre-Chorus:
G|----------|----------|----------|----------|
D|----------|-2~~~~~~~-|-5~~~~~~~-|-------5--|
A|-5~~~~~~~-|----------|----------|----------|
E|----------|----------|----------|----------|

G|----------|----------|----------|----------|
D|----------|-2~~~~~~~-|-5~~~~~~~-|-~~~~~~5--|
A|-5~~~~~~~-|----------|----------|----------|
E|----------|----------|----------|----------|

G|----------|----------|----------|----------|
D|----------|-2~~~~~~~-|-5~~~~~~~-|-~~~~~~~~-|
A|-5~~~~~~~-|----------|----------|----------|
E|----------|----------|----------|----------|

Chorus:
G|----------|----------|----------|----------|
D|-----5555-|-22222222-|----------|----------|
A|-3333-----|----------|----------|-----255\-|
E|----------|----------|-33333333-|-3333-----|

Verse:
G|----------|----------|----------|---4-7----|
D|----------|------12--|-55555555-|-5-----5\-|
A|----------|----------|----------|----------|
E|----------|----------|----------|----------|

G|----------|-------04-|----------|----------|
D|-22-22-22-|--22-22---|-55-55-55-|--505-55--|
A|----------|----------|----------|----------|
E|----------|----------|----------|----------|

Pre-Chorus:
G|----------|----------|----------|----------|
D|----------|-2~~~~~~~-|-5~~~~~~~-|------45--|
A|-5~~~~~~~-|----------|----------|----------|
E|----------|----------|----------|----------|

G|----------|----------|----------|----------|
D|----------|-2~~~~~~~-|-5~~~~~~~-|-~~~~--5--|
A|-5~~~~~~~-|----------|----------|----------|
E|----------|----------|----------|----------|

G|----------|----------|----------|----------|
D|----------|-2~~~~~~~-|-5~~~~~~~-|-~~~~~~~~-|
A|-5~~~~~~~-|----------|----------|----------|
E|----------|----------|----------|----------|

Chorus:
G|----------|----------|----------|----------|
D|-----5555-|-22222222-|----------|----------|
A|-3333-----|----------|----------|-----252--|
E|----------|----------|-33333333-|-3333---3-|

G|----------|----------|----------|----------|
D|-----5555-|-22222222-|----------|----------|
A|-3333-----|----------|-------25-|----------|
E|----------|----------|-333333---|-3333333\-|

Bridge:
G|----------|----------|----------|----------|
D|-22-22-22-|--22-2222-|-55-55-55-|--55\-----|
A|----------|----------|----------|----------|
E|----------|----------|----------|----------|

G|----------|----------|----------|----------|
D|-22~22~22-|-~22~2222-|-55~55~55-|-~55~5555-|
A|----------|----------|----------|----------|
E|----------|----------|----------|----------|

G|----------|----------|----------|----------|
D|-22-22-22-|--22-2222-|-55-55-55-|--55\-----|
A|----------|----------|----------|----------|
E|----------|----------|----------|----------|

G|----------|----------|----------|----------|
D|-22~22~22-|-~22~2222-|-55~55~55-|-~55~5555-|
A|----------|----------|----------|----------|
E|----------|----------|----------|----------|

Outro:
G|----------|----------|----------|----------|
D|-55-55-55-|--55-555--|-55-55-55-|--55-5555-|
A|----------|----------|----------|----------|
E|----------|----------|----------|----------|
Suggest correction
Give kudos to tab author, rate the tab!
1 2 3 4 5
comments
print report bad tab
guest
You may want to rate the tab now too:
select rating
Wanna post a correction for this tab? Suggest correction