Oops, an error
Loading. Please wait.

Con Bass Tab

version 1
version 1

Whole song

Interactive

8,138 views 15 this week
2 commentsread comments
1 2 3 4 5
please rate
add to favorites
launch autoscroll
font size
0
reset
guitar tuner
Autoscroll
slow
fast
+/-
esc
set tempo
stop
Help us to improve Ultimate-Guitar.com Take our survey!
×
Difficulty
intermediate
really fun song to play. I think this is right, but judge for yourself. have fun :)

bass comes in at "Calm down..."

E ---1-----1----------4-3-1----------------4-3-1----------------4-6-1--|
A ------3-----3-4--6---------3--1--3-4--6---------3--1--3-4--6---------|
D ---------------------------------------------------------------------|
G ---------------------------------------------------------------------|

E ---------------------------------------------------------|
A ---3--1--3-4--6-6-6-6--4-4-4-4-4-4-4-4-4-4-4-4-4-4-4-4---|
D ---------------------------------------------------------|
G ---------------------------------------------------------|

E ------------------------------------------------------------------|
A ---6-6-6-------------------------------------4-4--4-4--4-4--4-4---|
D ---------8-8-8-8-8-8-8-8-8-8--6-5-3-6-5-3-5-----------------------|
G ------------------------------------------------------------------|

E ------------------------------------------4---|
A ---6-----6--------6--4-4--4-4--4-4--4-3-1-----|
D ------8-----8--8------------------------------|
G ----------------------------------------------|

E ---1-1--1--1--1--1--1-------------------------------------------|
A -----------------------3-3-3--4-4-4-4-4-4-4-4-4-4-4-4-4-4-4-4---|
D ----------------------------------------------------------------|
G ----------------------------------------------------------------|


"Spelled out your name..."

E ---1--------------------------1-----4--------------------|
A ---------3--4-4-4--6-6--4-6------------4-4-4--6-6--4-6---|
D ------3--------------------------3-----------------------|
G ---------------------------------------------------------|

E ---1-----4------------------------1-----4------------------------|
A ------------1-3-4-4-4--6-6--4-6------------1-3-4-4-4--6----------|
D ------3------------------------------3-------------------5h6p5---|
G -----------------------------------------------------------------|


"Calm down..."

E ---1---------------4-3-1----------------4-3-1----------------4-6-1---|
A ------3--1--3-4--6---------3--1--3-4--6---------3--1--3-4--6---------|
D ---------------------------------------------------------------------|
G ---------------------------------------------------------------------|

E ---------------------------------------------------------|
A ---3--1--3-4--6-6-6-6--4-4-4-4-4-4-4-4-4-4-4-4-4-4-4-4---|
D ---------------------------------------------------------|
G ---------------------------------------------------------|

E ------------------------------------------------------------------|
A ---6-6-6-------------------------------------4-4--4-4--4-4--4-4---|
D ---------8-8-8-8-8-8-8-8-8-8--6-5-3-6-5-3-5-----------------------|
G ------------------------------------------------------------------|

E ------------------------------------------4---|
A ---6-----6--------6--4-4--4-4--4-4--4-3-1-----|
D ------8-----8--8------------------------------|
G ----------------------------------------------|

E ---1-1--1--1--1--1--1-------------------------------------------|
A -----------------------3-3-3--4-4-4-4-4-4-4-4-4-4-4-4-4-4-4-4---|
D ----------------------------------------------------------------|
G ----------------------------------------------------------------|


"Encircle me..."

E ---------1--3--4-4--------------------------------|
A ---6--8-------------1-3--4--4--4--4--4--4--4--4---|
D --------------------------------------------------|    x4
G --------------------------------------------------|

E ---4----------------------------------|
A -----4-4-4-4-4-4-4-4-4-4-4-4-4-4-4/---|
D --------------------------------------|
G --------------------------------------|


Bass stops, then comes back in at "...cry..."

E --------------------------------------------------------------|
A ---4-4--4-4--4-4--4-4--6--------6-----6--4-4--4-4--4-4--4-4---|
D --------------------------8--8-----8--------------------------|
G --------------------------------------------------------------|

E -------------------------------------------------------------------|
A -------------------------------------------------------------------|
D ---11-11-11-10-10-10-8-8-8-6-6-6-5-5-3-3-1-1-1-3-3-3-5-5-5-6-6-6---|
G -------------------------------------------------------------------|

E --------------------------------------|
A --------8p6--4--4--4--4--4--4--4--4---|
D ---8p6--------------------------------|
G --------------------------------------|


"Encircle me..."

E ---------1--3--4-4-------------4--------------4---------|
A ---6--8-------------1-3--4--4-----4--4--4-4-4----4--4---|
D --------------------------------------------------------|    x4
G --------------------------------------------------------|

E ------------------------------------1-1-1---|
A ---6-6-6-8-8-8-10-10-11-11-11-11-11---------|
D --------------------------------------------|
G --------------------------------------------|


listen to the song for the exact rhythm
Suggest correction
What's this?
You can suggest a correction to this tab. Community and Mods will review your correction and vote to approve or reject it.
comments
We did not receive enough feedback on this tab! Please rate:
print report bad tab
1 2 3 4 5
2 comments total.
+1 reply
turkey3202003 21 wrote on February 16 2008, 11:17 pm

looks pretty good but dude why in the hell did you have to tab it upside down

0 reply
fendernoob_2007 87 wrote on April 6 2008, 08:55 pm

why is this tabbed upside down???

guest
You may want to rate the tab now too:
select rating
Please do not post tabs as comments. Select "correction" instead!