Oops, an error
Loading. Please wait.

Con Bass Tab

version 2
version 2

Whole song

Interactive

11,619 views 15 this week
1 commentread comment
1 2 3 4 5
excellent!
x 7
add to favorites
launch autoscroll
font size
0
reset
guitar tuner
Autoscroll
slow
fast
+/-
esc
set tempo
stop
Help us to improve Ultimate-Guitar.com Take our survey!
×
Author
Difficulty
intermediate
cool song by tegan and sara

Tuning..standard


bass comes in at "Calm down..."



G ---------------------------------------------------------------------|
D ---------------------------------------------------------------------|
A ------3-----3-4--6---------3--1--3-4--6---------3--1--3-4--6---------|
E ---1-----1----------4-3-1----------------4-3-1----------------4-6-1--|

G ---------------------------------------------------------|
D ---------------------------------------------------------|
A ---3--1--3-4--6-6-6-6--4-4-4-4-4-4-4-4-4-4-4-4-4-4-4-4---|
E ---------------------------------------------------------|


G ------------------------------------------------------------------|
D ---------8-8-8-8-8-8-8-8-8-8--6-5-3-6-5-3-5-----------------------|
A ---6-6-6-------------------------------------4-4--4-4--4-4--4-4---|
E ------------------------------------------------------------------|

G ----------------------------------------------|
D ------8-----8--8------------------------------|
A ---6-----6--------6--4-4--4-4--4-4--4-3-1-----|
E ------------------------------------------4---|


G ----------------------------------------------------------------|
D ----------------------------------------------------------------|
A -----------------------3-3-3--4-4-4-4-4-4-4-4-4-4-4-4-4-4-4-4---|
E ---1-1--1--1--1--1--1-------------------------------------------|



"Spelled out your name..."


G ---------------------------------------------------------|
D ------3--------------------------3-----------------------|
A ---------3--4-4-4--6-6--4-6------------4-4-4--6-6--4-6---|
E ---1--------------------------1-----4--------------------|


G -----------------------------------------------------------------|
D ------3------------------------------3-------------------5h6p5---|
A ------------1-3-4-4-4--6-6--4-6------------1-3-4-4-4--6----------|
E ---1-----4------------------------1-----4------------------------|


"Calm down..."


G ---------------------------------------------------------------------|
D ---------------------------------------------------------------------|
A ------3--1--3-4--6---------3--1--3-4--6---------3--1--3-4--6---------|
E ---1---------------4-3-1----------------4-3-1----------------4-6-1---|

G ---------------------------------------------------------|
D ---------------------------------------------------------|
A ---3--1--3-4--6-6-6-6--4-4-4-4-4-4-4-4-4-4-4-4-4-4-4-4---|
E ---------------------------------------------------------|


G ------------------------------------------------------------------|
D ---------8-8-8-8-8-8-8-8-8-8--6-5-3-6-5-3-5-----------------------|
A ---6-6-6-------------------------------------4-4--4-4--4-4--4-4---|
E ------------------------------------------------------------------|

G ----------------------------------------------|
D ------8-----8--8------------------------------|
A ---6-----6--------6--4-4--4-4--4-4--4-3-1-----|
E ------------------------------------------4---|

G ----------------------------------------------------------------|
D ----------------------------------------------------------------|
A -----------------------3-3-3--4-4-4-4-4-4-4-4-4-4-4-4-4-4-4-4---|
E ---1-1--1--1--1--1--1-------------------------------------------|


"Encircle me..."

G --------------------------------------------------|
D --------------------------------------------------|  x4
A ---6--8-------------1-3--4--4--4--4--4--4--4--4---|
E ---------1--3--4-4--------------------------------|

G --------------------------------------|
D --------------------------------------|
A -----4-4-4-4-4-4-4-4-4-4-4-4-4-4-4/---|
E ---4----------------------------------|


Bass stops, then comes back in at "...cry..."


G --------------------------------------------------------------|
D --------------------------8--8-----8--------------------------|
A ---4-4--4-4--4-4--4-4--6--------6-----6--4-4--4-4--4-4--4-4---|
E --------------------------------------------------------------|

G -------------------------------------------------------------------|
D ---11-11-11-10-10-10-8-8-8-6-6-6-5-5-3-3-1-1-1-3-3-3-5-5-5-6-6-6---|
A -------------------------------------------------------------------|
E -------------------------------------------------------------------|

G --------------------------------------|
D ---8p6--------------------------------|
A --------8p6--4--4--4--4--4--4--4--4---|
E --------------------------------------|

Encircle me..."


G --------------------------------------------------------|
D --------------------------------------------------------| x4
A ---6--8-------------1-3--4--4-----4--4--4-4-4----4--4---|
E ---------1--3--4-4-------------4--------------4---------|


G --------------------------------------------|
D --------------------------------------------|
A ---6-6-6-8-8-8-10-10-11-11-11-11-11---------|
E ------------------------------------1-1-1---|


listen to the song for the exact rhythm......duh







Suggest correction
What's this?
You can suggest a correction to this tab. Community and Mods will review your correction and vote to approve or reject it.
comments
print report bad tab
1 comment total.
+2 reply
pixies3141 69 wrote on June 27 2008, 11:19 am

finally someone who knows the order that the strings go!!!! great song and band!!!

guest
You may want to rate the tab now too:
select rating
Please do not post tabs as comments. Select "correction" instead!