Oops, an error
Loading. Please wait.

Con Tab

version 5
version 5

Whole song

Interactive

419 views 3 this week
no commentswrite comment
1 2 3 4 5
worth learning
x 1
add to favorites
launch autoscroll
font size
0
reset
how to read this tab
guitar tuner
Tab Pro tools
  • play this tab
  • loop segment
  • change instrument
  • show fretboard
  • metronome
Autoscroll
slow
fast
+/-
esc
set tempo
stop
Contributor
Tegan & Sara: The Con

Standard Tuning
*Capo 1st fret* - notes relative to capo

Guitar 1: clean
Guitar 2: distortion
 - can be played w/ only 1 guitar. the more important part is labelled w/ a *

INTRO:

*Guitar 1
e|--------------------------------|--------------------------------|
B|--------------------------------|--------------------------------|
G|-0-0-0-0-0-0-0-0-0-0-0-0-0-0-0-0|-0-0-0-0-0-0-0-0-0-0-0-0-0-0-0-0|
D|-0-0-0-0-0-0-0-0-0-0-0-0-0-0-0-0|-0-0-0-0-0-0-0-0-0-0-0-0-0-0-0-0|
A|1010101010-9-9-5-5-3-3-3-3-5-5-5|1010101010-9-9-5-5-3-3-3-3-5-5-5|
E|---------------3-3--------------|---------------3-3--------------|

VERSE:

Play intro riff x2

PRE-CHORUS:

Guitar 1
e|--------------------------------|--------------------------------|
B|--------------------------------|--------------------------------|
G|-0~------0~------0~------0~-----|-0~------0~------0~------0~-----|
D|-0~------0~------0~------0~-----|-0~------0~------0~------0~-----|
A|10~------9~------3~------5~-----|10~------9~------3~------5~-----|
E|--------------------------------|--------------------------------|
"Calm down..."                    "I'm capsized..."

e|--------------------------------|--------------------------------|
B|--------------------------------|--------------------------------|
G|-0~------0~------0~------0~-----|-0~------0~------0~------0~-----|
D|-0~------0~------0~------0~-----|-0~------0~------0~------0~-----|
A|10~------9~------3~------5~-----|10~------9~------3~------5~-----|
E|--------------------------------|--------------------------------|
"Calm down..."                    "I'm home now..."

*Guitar 2
e|--------------------------------|--------------------------------|
B|--------------------------------|--------------------------------|
G|-----------------5-5---5-7---7--|-----------------5-5---5--------|
D|-2-2---2-2---2---5-5---5-7---7--|-2-2---2-2---2---5-5---5-5---4--|
A|-2-2---2-2---2---3-3---3-5---5--|-2-2---2-2---2---3-3---3-5---5--|
E|-0-0---0-0---0------------------|-0-0---0-0---0-----------3---2--|
"Calm down..."                    "I'm capsized..."

e|--------------------------------|--------------------------------|
B|--------------------------------|--------------------------------|
G|-----------------5-5---5-7---7--|-----------------5-5---5--------|
D|-2-2---2-2---2---5-5---5-7---7--|-2-2---2-2---2---5-5---5-5---4--|
A|-2-2---2-2---2---3-3---3-5---5--|-2-2---2-2---2---3-3---3-5---5--|
E|-0-0---0-0---0------------------|-0-0---0-0---0-----------3---2--|
"Calm down..."                    "I'm home now..."

CHORUS:

Guitar 1
e|--------------------------------|--------------------------------|
B|--------------------------------|--------------------------------|
G|-0-0-0-0-0-0-0-0-0-0-0-0-0-0-0-0|-0-0-0-0-0-0-0-0-0-0-0-0-0-0-0-0|
D|-0-0-0-0-0-0-0-0-0-0-0-0-0-0-0-0|-0-0-0-0-0-0-0-0-0-0-0-0-0-0-0-0|
A|-3-3-3-3-3-3-3-3-3-3-3-3-3-3-3-3|-5-5-5-5-5-5-5-5-5-5-5-5-5-5-5-5|
E|--------------------------------|--------------------------------|
"...Coming around"                "Nobody likes to..."

e|--------------------------------|--------------------------------|
B|--------------------------------|--------------------------------|
G|-0-0-0-0-0-0-0-0-0-0-0-0-0-0-0-0|-0-0-0-0-0-0-0-0-0-0-0-0-0-0-0-0|
D|-0-0-0-0-0-0-0-0-0-0-0-0-0-0-0-0|-0-0-0-0-0-0-0-0-0-0-0-0-0-0-0-0|
A|-3-3-----3-3-----3-3-----3-3----|-5-5-5-5-5-5-5-5-5-5-5-5-5-5-5-5|
E|-----3-3-----3-3-----3-3-----3-3|--------------------------------|
"...cry"                          "Nobody likes me..."

e|--------------------------------|
B|--------------------------------|
G|-0-0-0-0-0-0-0-0-0-0-0-0-0-0-0-0|
D|-0-0-0-0-0-0-0-0-0-0-0-0-0-0-0-0|
A|-3-3-----3-3-----3-3-----3-3----|
E|-----3-3-----3-3-----3-3-----3-3|
"...cry"

*Guitar 2
e|--------------------------------|--------------------------------|
B|--------------------------------|--------------------------------|
G|-5-5-5-5-5-5-5-5-5-5-5-5-5-5-5-5|-7-7-7-7-7-7-7-7-7-7-7-7-7-7-7-7|
D|-5-5-5-5-5-5-5-5-5-5-5-5-5-5-5-5|-7-7-7-7-7-7-7-7-7-7-7-7-7-7-7-7|
A|-3-3-3-3-3-3-3-3-3-3-3-3-3-3-3-3|-5-5-5-5-5-5-5-5-5-5-5-5-5-5-5-5|
E|--------------------------------|--------------------------------|
"...Coming around"                "likes to..."

e|--------------------------------|--------------------------------|
B|--------------------------------|--------------------------------|
G|-----5-5-----5-5-----5-5-----5-5|-7-7-7-7-7-7-7-7-7-7-7-7-7-7-7-7|
D|-----5-5-----5-5-----5-5-----5-5|-7-7-7-7-7-7-7-7-7-7-7-7-7-7-7-7|
A|-3-3-----3-3-----3-3-----3-3----|-5-5-5-5-5-5-5-5-5-5-5-5-5-5-5-5|
E|-----3-3-----3-3-----3-3-----3-3|--------------------------------|
PM . .     . .     . .     . .
"...cry"                          "likes me..."

e|--------------------------------|
B|--------------------------------|
G|-----5-5-----5-5-----5-5-----5-5|
D|-----5-5-----5-5-----5-5-----5-5|
A|-3-3-----3-3-----3-3-----3-3----|
E|-----3-3-----3-3-----3-3-----3-3|
PM . .     . .     . .     . .
"...cry"

PRE-VERSE

*Guitar 1
e|--------------------------------|--------------------------------|
B|--------------------------------|--------------------------------|
G|-0-0-0-0-0-0-0-0-0-0-0-0-0-0-0-0|-0-0-0-0-0-0-0-0-0-0-0-0-0-0-0-0|
D|-0-0-0-0-0-0-0-0-0-0-0-0-0-0-0-0|-0-0-0-0-0-0-0-0-0-0-0-0-0-0-0-0|
A|-5-5-5-7-7-7-9-9-910101010------|-3-3-3-3-3-3-3-3-3-3-3-3-3-3-3-3|
E|---------------------------3-3-3|--------------------------------|

Guitar 2
e|--------------------------------|--------------------------------|
B|--------------------------------|--------------------------------|
G|--------------------------------|--------------------------------|
D|---------------------------5-5-5|--------------------------------|
A|---------------------------5-5-5|--------------------------------|
E|---------------------------3-3-3|--------------------------------|

VERSE:

Play intro riff x2

PRE-CHORUS:

Same as before

CHORUS:

Same as before

BRIDGE PART 1:

Play Pre-verse x1
then:

*Guitar 1
e|--------------------------------|--------------------------------|
B|-0~-----------------------------|-0~-----------------------------|
G|-0~-----------------------------|-0~-----------------------------|
D|-0~-----------------------------|-0~-----------------------------|
A|-5-5-5-7-7-7-9-9-910101010------|-3-3-3-3-3-3-3-3-3-3-3-3-3-3-3-3|
E|---------------------------3-3-3|--------------------------------|
"Encircle me..."                  "Taken down"

e|--------------------------------|--------------------------------|
B|--------------------------------|--------------------------------|
G|-0~----0~----0~----0~-----------|-0~-----------------------------|
D|-0~----0~----0~----0~-----------|-0~-----------------------------|
A|-5-5-5-7-7-7-9-9-910101010------|-3-3-3-3-3-3-3-3-3-3-3-3-3-3-3-3|
E|---------------------------3-3-3|--------------------------------|
"Encircle me..."                  "Taken do-own"

e|--------------------------------|--------------------------------|
B|--------------------------------|--------------------------------|
G|-0~----0~----0~----0~-----------|-0~-----------------------------|
D|-0~----0~----0~----0~-----------|-0~-----------------------------|
A|-5-5-5-7-7-7-9-9-910101010------|-3-3-3-3-3-3-3-3-3-3-3-3-3-3-3-3|
E|---------------------------3-3-3|--------------------------------|
"Encircle me..."                  "Taken down"

e|--------------------------------|--------------------------------|
B|--------------------------------|--------------------------------|
G|-0~----0~----0~----0~-----------|-0~-----------------------------|
D|-0~----0~----0~----0~-----------|-0~-----------------------------|
A|-5-5-5-7-7-7-9-9-910101010------|-3-3-3-3-3-3-3-3-3-3-3-3-3-3-3-3|
E|---------------------------3-3-3|--------------------------------|
"Encircle me..."                  "Taken do-own"

Guitar 2
e|--------------------------------|--------------------------------|
B|--------------------------------|--------------------------------|
G|--------------------------------|--------------------------------|
D|---------------------------5-5-5|--------------------------------|
A|---------------------------5-5-5|--------------------------------|
E|---------------------------3-3-3|--------------------------------|
"Encircle me..."                  "Taken down"

e|--------------------------------|--------------------------------|
B|--------------------------------|--------------------------------|
G|--------------------------------|--------------------------------|
D|---------------------------5-5-5|-5-5-5-5-5-5-5-5-5-5-5-5-5-5-5-5|
A|---------------------------5-5-5|-3-3-3-3-3-3-3-3-3-3-3-3-3-3-3-3|
E|---------------------------3-3-3|--------------------------------|
"Encircle me..."                  "Taken do-own"

e|--------------------------------|--------------------------------|
B|--------------------------------|--------------------------------|
G|--------------------------------|--------------------------------|
D|---------------------------5-5-5|-5-5-5-5-5-5-5-5-5-5-5-5-5-5-5-5|
A|---------------------------5-5-5|-3-3-3-3-3-3-3-3-3-3-3-3-3-3-3-3|
E|---------------------------3-3-3|--------------------------------|
"Encircle me..."                  "Taken down"

e|--------------------------------|--------------------------------|
B|--------------------------------|--------------------------------|
G|--------------------------------|--------------------------------|
D|---------------------------5-5-5|-5-5-5-5-5-5-5-5-5-5-5-5-5-5-5-5|
A|---------------------------5-5-5|-3-3-3-3-3-3-3-3-3-3-3-3-3-3-3-3|
E|---------------------------3-3-3|--------------------------------|
"Encircle me..."                  "Taken do-own"

Synth
e|--------------------------------|
B|------10-8~-----------10-8------|
G|-7-9-7-----------7-9-7-----9~---|
D|--------------------------------|
A|--------------------------------|
E|--------------------------------| repeat several times

FINAL CHORUS:

Guitar 1
e|--------------------------------|--------------------------------|
B|--------------------------------|--------------------------------|
G|-0-0-0-0-0-0-0-0-0-0-0-0-0-0-0-0|--------------------------------|
D|-0-0-0-0-0-0-0-0-0-0-0-0-0-0-0-0|--------------------------------|
A|-3-3-3-3-3-3-3-3-3-3-3-3-3-3-3-3|--------------------------------|
E|--------------------------------|--------------------------------|
                                  "Nobody likes to..."

e|--------------------------------|--------------------------------|
B|--------------------------------|--------------------------------|
G|-0-0-0-0-0-0-0-0-0-0-0-0-0-0-0-0|-0-0-0-0-0-0-0-0-0-0-0-0-0-0-0-0|
D|-0-0-0-0-0-0-0-0-0-0-0-0-0-0-0-0|-0-0-0-0-0-0-0-0-0-0-0-0-0-0-0-0|
A|-3-3-----3-3-----3-3-----3-3----|-5-5-5-5-5-5-5-5-5-5-5-5-5-5-5-5|
E|-----3-3-----3-3-----3-3-----3-3|--------------------------------|
"...cry"                          "Nobody likes me..."

e|--------------------------------|
B|--------------------------------|
G|-0-0-0-0-0-0-0-0-0-0-0-0-0-0-0-0|
D|-0-0-0-0-0-0-0-0-0-0-0-0-0-0-0-0|
A|-3-3-----3-3-----3-3-----3-3----|
E|-----3-3-----3-3-----3-3-----3-3|
"...cry"

*Guitar 2
e|--------------------------------|--------------------------------|
B|--------------------------------|--------------------------------|
G|-5-5-5-5-5-5-5-5-5-5-5-5-5-5-5-5|--------------------------------|
D|-5-5-5-5-5-5-5-5-5-5-5-5-5-5-5-5|-7-7-7-7-7-7-7-7-7-7-7-7-7-7-7-7|
A|-3-3-3-3-3-3-3-3-3-3-3-3-3-3-3-3|-5-5-5-5-5-5-5-5-5-5-5-5-5-5-5-5|
E|--------------------------------|--------------------------------|
                                 PM . . . . . . . . . . . . . . . .
                                  "Nobody likes to..."

e|--------------------------------|--------------------------------|
B|--------------------------------|--------------------------------|
G|-----5-5-----5-5-----5-5-----5-5|-7-7-7-7-7-7-7-7-7-7-7-7-7-7-7-7|
D|-----5-5-----5-5-----5-5-----5-5|-7-7-7-7-7-7-7-7-7-7-7-7-7-7-7-7|
A|-3-3-----3-3-----3-3-----3-3----|-5-5-5-5-5-5-5-5-5-5-5-5-5-5-5-5|
E|-----3-3-----3-3-----3-3-----3-3|--------------------------------|
PM . .     . .     . .     . .
"...cry"                          "Nobody likes me..."

e|--------------------------------|
B|--------------------------------|
G|-----5-5-----5-5-----5-5-----5-5|
D|-----5-5-----5-5-----5-5-----5-5|
A|-3-3-----3-3-----3-3-----3-3----|
E|-----3-3-----3-3-----3-3-----3-3|
PM . .     . .     . .     . .
"...cry"

OUTRO PART 1:

Guitar 1
e|--------------------------------|--------------------------------|
B|--------------------------------|--------------------------------|
G|-0-0-0-0-0-0-0-0-0-0-0-0-0-0-0-0|-0-0-0-0-0-0-0-0-0-0-0-0-0-0-0-0|
D|-0-0-0-0-0-0-0-0-0-0-0-0-0-0-0-0|-0-0-0-0-0-0-0-0-0-0-0-0-0-0-0-0|
A|101010-9-9-9-7-7-7-5-5-5-2-2-3-3|-5-5-5-7-7-7-9-9-910101010101010|
E|--------------------------------|--------------------------------|
"Nobody, nobody..."               "Nobody, nobody..."

e|--------------------------------|
B|--------------------------------|
G|-0-0-0-0-0-0-0-0-0-0-0-0-0-0-0-0|
D|-0-0-0-0-0-0-0-0-0-0-0-0-0-0-0-0|
A|-3-3-3-3-3-3-3-3-3-3-3-3-3-3-3-3|
E|--------------------------------|

OUTRO PART 2: 

Guitar play Pre-Verse x3.5

*Guitar 2
e|--------------------------------|--------------------------------|
B|--------------------------------|--------------------------------|
G|-7-7-7-9-9-911111112121212121212|-5-5-5-5-5-5-5-5-5-5-5-5-5-5-5-5|
D|-x-x-x-x-x-x-x-x-x-x-x-x-x-x-x-x|-x-x-x-x-x-x-x-x-x-x-x-x-x-x-x-x|
A|-5-5-5-7-7-7-9-9-910101010101010|-3-3-3-3-3-3-3-3-3-3-3-3-3-3-3-3|
E|--------------------------------|--------------------------------|


e|--------------------------------|--------------------------------|
B|--------------------------------|--------------------------------|
G|-7-7-7-9-9-911111112121212121212|-5-5-5-5-5-5-5-5-5-5-5-5-5-5-5-5|
D|-x-x-x-x-x-x-x-x-x-x-x-x-x-x-x-x|-x-x-x-x-x-x-x-x-x-x-x-x-x-x-x-x|
A|-5-5-5-7-7-7-9-9-910101010101010|-3-3-3-3-3-3-3-3-3-3-3-3-3-3-3-3|
E|--------------------------------|--------------------------------|


e|--------------------------------|--------------------------------|
B|--------------------------------|--------------------------------|
G|-7-7-7-9-9-911111112121212121212|-5-5-5-5-5-5-5-5-5-5-5-5-5-5-5-5|
D|-x-x-x-x-x-x-x-x-x-x-x-x-x-x-x-x|-x-x-x-x-x-x-x-x-x-x-x-x-x-x-x-x|
A|-5-5-5-7-7-7-9-9-910101010101010|-3-3-3-3-3-3-3-3-3-3-3-3-3-3-3-3|
E|--------------------------------|--------------------------------|


e|--------------------------------|
B|--------------------------------|
G|-7-7-7-9-9-911111112121212121212|
D|-x-x-x-x-x-x-x-x-x-x-x-x-x-x-x-x|
A|-5-5-5-7-7-7-9-9-910101010101010|
E|--------------------------------|

                                END

Hope it makes sense. Feedback is welcome
comments
We did not receive enough feedback on this tab! Please rate:
print report bad tab
1 2 3 4 5
I want to post or [tab]
guest
You may want to rate the tab now too:
select rating
Please do not post tabs as comments. Select "correction" instead!