Oops, an error
Loading. Please wait.

Floorplan tab

version 1
version 1

Whole song

9,699 views 12 this week
no commentswrite comment
1 2 3 4 5
x 5
add to favorites
×
Save as Personal and add changes to this tab that will be seen only by you. Learn more ›
×
You can save this tab as Personal to edit and correct it or add notes. All changes will be seen only by you. Learn more »
launch autoscroll
font size
0
reset
how to read this tab
guitar tuner
edit
Autoscroll
slow
fast
+/-
esc
set tempo
stop
Author
Difficulty
Song: Floorplan
Artist: Tegan And Sara
Album: The Con
Year: 2007
Tabbed by: Maite Díaz
rockmaite@hotmail.com

ENJOY!!!  :]

No capo, standard tuning.


CHORDS USED:
     E   C5    D   Em    Am  C/B   F    C
e ---0----3----3----0----0----0----0-----0-----|
B ---0----3----2----0----1----1----1-----1-----|
G ---1----0----3----0----2----2----2-----0-----|
D ---2----2----0----2----2----0----3-----2-----|
A ---2----3----x----2----0----2----3-----3-----|
E ---0----x----x----0----x----x---(1)----x-----|


RIFF INTRO:
    E        C5         D        C5
E ---------------------------------------------|
B ----0---------3---------3---------3----------|
G ------1---------0---------2---------0--------|
D --------2---------2---0-----0----------2-----|
A --2--------3--------------------3------------|
E ---------------------------------------------|


VERSE 1:
Play riff intro

E          C5          D          C5           Em
I want to draw you a floorplan of my head and heart

E          C5          D          C5    E    C5   D    C5
I want to give directions ...

                   Em
What you'll be looking for

                   Em
What you'll be looking for

RIFF BRIDGE:
    Am       C/B        F           C
e -------------------------0-------------------|
B ----1----------1------------1--------1-------|
G ------2----------2------------2--------0-----|
D --------2----------0---------------------2---|
A --0---------2----------3-----------3---------|
E ---------------------------------------------|


BRIDGE:
Play riff bridge

Am   C/B        F                         C
    I know I'll hold these thoughts in my heart forever
Am   C/B        F        C
    I know I'll hold, I'll hold
x2


CHORUS:
Am   C/B    F        C     Am  C/B  F  C
All        eyes are on me now
Am   C/B    F        C     Am  C/B  F  C
All        eyes are on me now


VERSE 2: (Same as Intro & Verse 1)
Play riff Intro

I want your lungs to stop working without me
I think about writing you
I thought about calling you
What was I looking for
What am I looking for

BRIDGE:
I know I'll hold this pain in my heart forever
I know I'll hold, I'll hold
I know I'll hold this pain in my heart forever
I know I'll hold, I'll hold

CHORUS:
All eyes are on you now
All eyes are on you now


BRIDGE 2:
Same chords and riff as Bridge, but ending in “pressure” with a loud F

Am               C/B
      I shouldn't go
         F          C
But I can't really help it
Am     C/B           F
When I feel this pressure

x2

CHORUS:
All eyes are on me now

BRIDGE 2:
I shouldn't go
But I can't really help it
When I feel this pressure
I shouldn't go
But I can't really help it
When I feel this pressure


Am             C/B       F            C
   I shouldn't go when I feel this building
Am             C/B       F            C
   I shouldn't go when I feel this building
Am             C/B       F            C
   I shouldn't go but I can't really help it
Am      C/B         F
When I feel this pressure.

            
            
Suggest correction
Creating personal tab
Creating personal tab
You can edit any tab online and save it as your Personal.

You can edit, replace or remove any tab part or add personal notes – all changes will be seen only by you.

Personal tabs can be accessed anytime from any device, even offline.
Learn more »
comments
print report bad tab
guest
You may want to rate the tab now too:
select rating
Wanna post a correction for this tab? Suggest correction