Oops, an error
Loading. Please wait.

Hell Bass Tab

version 1
version 1

Whole song

Interactive

5,741 views 12 this week
1 commentread comment
1 2 3 4 5
excellent!
x 6
add to favorites
launch autoscroll
font size
0
reset
guitar tuner
Tab Pro tools
  • play this tab
  • loop segment
  • change instrument
  • show fretboard
  • metronome
Autoscroll
slow
fast
+/-
esc
set tempo
stop
Contributor
Difficulty
intermediate
Intro / Verse:
G |---------------------------------------------------------------------|
D |---------------------------------------------------------------------|
A |-----------------44-444-446-6-6-6-----------------44-444-446-6-6-6---|
E |-11-111-111-111-1-----------------11-111-111-111-1-------------------|

Chorus:
G |---------------------------------------------------------------------|
D |----------------------------------44444444---------------------------|
A |---------4444-----------------------------4444-----------------------|
E |-22222222----44246666666666666666-------------442466-666-666-66666---|

Verse Variation:
G |---------------------------------------------------------------------|
D |---------------------------------------------------------------------|
A |----------------xx4-xx4-xx6-xx6---------------xx4-xx4-xx6-x666-------|
E |-xx1-xx1-xx1-xx1---------------xx1-xx1-xx1-xx1-----------------------|

Guitar Solo:
G |---------------------------------------------------------------------|
D |----------------------------------------------------1111111122222222-|
A |-44444444466666666-----------------44444444433333333-----------------|
E |------------------66666666611111111----------------------------------|

Post Solo:
G |---------------------------------------------------------------------|
D |-3-3-3-3-3-3-3-3-----------------------------------------------------|
A |----------------44-444-446-6-6-6----------------44-444-4-44----------|
E |--------------------------------11-111-111-111-1-----------h4\1------|

Order:
Verse------------(x4)
Chorus-----------(x2)
Verse------------(x1)
Verse Variation--(x1)
Verse------------(x1)
Chorus-----------(x2)
Guitar Solo------(x1)
Chorus Until End
comments
print report bad tab
1 comment total.
-1 reply
hippopatimus wrote on March 19 2010, 08:44 pm

Chorus:
G |----------------------------------|
D |----------------------------------|
A |---------4444---------------------|
E |-22222222----44246666666666666666-|

G |----------------------------------|
D |-44444444-------------------------|
A |---------4444---------------------|
E |-------------442466-666-666-66666-|

I want to post or [tab]
guest
You may want to rate the tab now too:
select rating
Please do not post tabs as comments. Select "correction" instead!