Oops, an error
Loading. Please wait.

Hop A Plane Bass Tab

version 1
version 1

Whole song

Interactive

5,063 views 6 this week
no commentswrite comment
1 2 3 4 5
accurate
x 3
add to favorites
launch autoscroll
font size
0
reset
guitar tuner
Autoscroll
slow
fast
+/-
esc
set tempo
stop
Help us to improve Ultimate-Guitar.com Take our survey!
×
Author
Difficulty
intermediate
-------------------------------------------------------------------------------
			     HOP A PLANE - Tegan And Sara
-------------------------------------------------------------------------------

Tabbed By : Sam Wood
e-mail: xemailxmex@btinternet.com

This song is from Tegan and Sara's new album called The Con.
The bass was played by Hunter from AFI and he's made a really fun tab to play. I'm about 
sure this is right so yeah, have fun and please rate :) - Sam.

Tuning: Standard.

First verse:

G|-------------------------7-------------------------------------------------|
D|---4-5-5-4---------4-5-5---------------------------------------------------|
A|-----------7---------------------------------------------------------------|
E|---------------------------------------------------------------------------| x2

G|----------------------7----------------------------------------------------|
D|-----4-5-5------4-5-5------------------------------------------------------|
A|-5-5------7-5-5------------------------------------------------------------|
E|---------------------------------------------------------------------------| x2

There's no bass played in the first chorus.
Fill before second verse is the same as first verse.
Second verse:

G|---------------------------------------------------------------------------|
D|----------------------------------------------555--------------------------|
A|-9\5-5---------5-5---------555-----555----555-----555----------------------|
E|-------2-2-2-3-----3-3-3-5-----333-----555------------555------------------|

Chorus:

G|------------------------------------------------------------------------------|
D|----------------------------------------------------------5-------------------|
A|-5-5-5-5-4-4-4-4-------------5-5-5-5-4-4-4-4-------4p0-4p0-5------------------|
E|------------------3-33-5-55------------------3-33-5---------------------------|

Bridge:

G|---------------------------------------------------------------------------|
D|--------------------5-4-2-5------------------------------------------------|
A|-5555555544444444----------------------------------------------------------|
E|---------------------------------------------------------------------------|

Straight back into the chorus.

G|---------------------------------------------------|  |--------------------|
D|---------------------------------------------------|  |----------5---------|
A|-5-5-5-5-4-4-4-4-------------5-5-5-5-4-4-4-4-------|x4|---4p0-4p0-5--------|
E|------------------3-33-5-55------------------3-33-5|  |--------------------|


G|-------------------------7-------------------------------------------------|
D|---4-5-5-4---------4-5-5---------------------------------------------------|
A|-----------7---------------------------------------------------------------|
E|---------------------------------------------------------------------------| x2

G|----------------------7------------------------7---------------------------|
D|-----4-5-5------4-5-5-------4-5-5-------4-5-5------------------------------|
A|-5-5------7-5-5---------5-5-------7-5-5---------5-5------------------------|
E|---------------------------------------------------------------------------|

So that's the whole song. Hope you enjoyed it and listen to the song for the
rhythm and timing etc.
Thanks.

| /  slide up
| \  slide down
| h  hammer-on
| p  pull-off
| ~  vibrato
| +  harmonic
| x  Mute note
===============================================================================
Suggest correction
What's this?
You can suggest a correction to this tab. Community and Mods will review your correction and vote to approve or reject it.
comments
We did not receive enough feedback on this tab! Please rate:
print report bad tab
1 2 3 4 5
guest
You may want to rate the tab now too:
select rating
Please do not post tabs as comments. Select "correction" instead!