Oops, an error
Loading. Please wait.

I Hear Noises Tab

7,176 views 6 this week
no commentswrite comment
1 2 3 4 5
x 6
add to favorites
launch autoscroll
font size
0
reset
how to read this tab
guitar tuner
Autoscroll
slow
fast
+/-
esc
set tempo
stop
Help us to improve Ultimate-Guitar.com Take our survey!
×
Author
Verse-

e----------------------------|
B----------------------------|
G---------9-----11-----9-----|
D---9-----9-X8--11-X8--9-X8--|
A---9-X8--7-----9------7-----|
E---7------------------------|


Chorus-

e---------------------------|
B---------------------------|
G--------9-----11------9----|
D--9-----9-X4--11--X4--9-X4-|
A--9-X4--7-----9-------7----|
E--7------------------------|


Riff-
("We could go...")

e---------------------|
B---------------------|
G---------------------|
D----12-----9---------|
A----12-----9---------|
E----10-----7---------|

Listen to the song and you'll get the strumming
Suggest correction
comments
print report bad tab
guest
You may want to rate the tab now too:
select rating
Wanna post a correction for this tab? Suggest correction