Oops, an error
Loading. Please wait.

I Know I Know I Know Bass Tab

5,174 views 1 this week
1 commentread comment
1 2 3 4 5
excellent!
x 6
add to favorites
launch autoscroll
font size
0
reset
guitar tuner
Autoscroll
slow
fast
+/-
esc
set tempo
stop
Help us to improve Ultimate-Guitar.com Take our survey!
×
Author
Difficulty
----------------------------------------------------------------------------
I know I know I know - Tegan and Sara
---------------------------------------------------------------------------

Tabbed By : Blackbdmillsaps
e-mail: blackbdmillsaps@hotmail.com

Bass comes in at (0:17)ish

Please note (Time) is when each riff starts. These times are based on my recording which 
differ from your own. There are only three riffs in the song.

Tuning: Standard EADG

Riff #1 (0:17)(0:41)(1:47)

G|----------8-8---------------8-8----------------5-5------------------------|
D|------8-8------8-8-------8-8-----8-8-------5-5-----5-5------------8-8-----|
A|-6-6------------------6-6---------------3-3--------------------8-8----8-8-|
E|------------------------------------------------------------6-6-----------|

Riff #2 (0:33)(1:14)(2:11)(2:52)

G|--------------------------------------------------------------------------|
D|--------------------------------------------------------------------------|
A|--------------------------------------------------------------------------|
E|-444444444444444--6666666666666666----------------------------------------|

Riff #3 (1:22)(2:20)(3:09)

G|--------------------------------------------------------------------------|
D|--------------------------------------------------------------------------|
A|-666666666666\-333333333333-----------------------------------------------|
E|------------------------------444444444444/-66666666666666----------------|


| /  slide up
| \  slide down
| h  hammer-on
| p  pull-off
| ~  vibrato
| +  harmonic
| x  Mute note
============================================================================
Suggest correction
comments
print report bad tab
1 comment total.
0 reply
Aquaduck 10 wrote on August 29 2015, 12:34 am

Flawless tab IMO, just little things:
1. When coming back in at (1:47), you start in the middle of Riff #1.
2. End on:
A|-66-|

guest
You may want to rate the tab now too:
select rating
Wanna post a correction for this tab? Suggest correction