Oops, an error
Loading. Please wait.

I Was Married Bass Tab

version 1
version 1

Whole song

Interactive

746 views 1 this week
no commentswrite comment
1 2 3 4 5
please rate
add to favorites
launch autoscroll
font size
0
reset
guitar tuner
Autoscroll
slow
fast
+/-
esc
set tempo
stop
Help us to improve Ultimate-Guitar.com Take our survey!
×
Author
I WAS MARRIED - Tegan and Sara
Tabbed By: CSC      Tuning: EADG

G|------------9---------|--------|------------9---------|--------|
D|--------------11------|--------|--------------11------|--------|
A|-----9-12-9-----------|--------|-----9-12-9-----------|--------|
E|----------------------|--------|----------------------|--------|

G|--------------------------------|
D|---------------------14-12-11---|
A|----------9---12--------------12|
E|-----10-------------------------|

0:23
G|---------------------------------------------|
D|-----11-12-14-12-11---------11-12-14-12-11---| x3
A|9-12----------------12-9-12----------------12|
E|---------------------------------------------|

G|----------------------------|
D|-----11-12-14-12-11---------|
A|9-12----------------12-12>--|
E|----------------------------|

0:41
G|------------9---------|--------|------------9---------|--------|
D|--------------11------|--------|--------------11------|--------|
A|-----9-12-9-----------|--------|-----9-12-9-----------|--------|
E|----------------------|--------|----------------------|--------|

G|----------------------|--------|------------9------------------|
D|----------------------|--------|--------------11----14-12-11---|
A|----------9---12------|--------|-----9-12-9------------------12|
E|-----10---------------|--------|-------------------------------|

1:10
G|---------------------------------------------|
D|-----11-12-14-12-11---------11-12-14-12-11---| x4
A|9-12----------------12-9-12----------------12|
E|---------------------------------------------|

G|----------------------|
D|-----11-12-14-12-11---|
A|9-12----------------12|
E|----------------------|
Suggest correction
Give kudos to tab author, rate the tab!
1 2 3 4 5
comments
print report bad tab
guest
You may want to rate the tab now too:
select rating
Wanna post a correction for this tab? Suggest correction