Oops, an error
Loading. Please wait.

Like O Like H Bass Tab

764 views 1 this week
no commentswrite comment
1 2 3 4 5
please rate
add to favorites
launch autoscroll
font size
0
reset
guitar tuner
Tab Pro tools
  • play this tab
  • loop segment
  • change instrument
  • show fretboard
  • metronome
×
Best way to learn
"Like O Like H"
Autoscroll
slow
fast
+/-
esc
set tempo
stop
Contributor
-----------------------------------------------------------------------
                                          Like O, Like H - Tegan and Sara
-----------------------------------------------------------------------
e-mail: kyleebrielle@gmail.com
You can watch a video of me playing with this tab here: 
http://www.youtube.com/watch?v=IMGvvhlqWOk
Tuning: E Standard

Intro:
G|--------------------------------------------------------------------|
D|----0--2--4----2-4------0--2--4--4----0--2--4----2-4------0--2--4--4|
A|-2-------------------2--------------2-------------------2-----------|
E|--------------------------------------------------------------------|

Verse:
G|--7~--7/------------------------------------------------------------|
D|---------------------------2----0-----------------------------------|
A|----------2-2-2-2-2-2-2-2------------4----0----2~---2-4-5-----------|
E|------------------------------------------------------------3~------|

G|--------------------------------------------------------------------|
D|------------2----0-------------------------------2----0-------------|
A|-0-2-4---2~-------------4----0---2~---2-4-5------------------4----0-|
E|--------------------------------------------3~----------------------|

Chorus: ("oh, oh, sugar spell it out like...")
G|--------------------------------------------------------------------|
D|--------------------------------------------------------------------|
A|-2~---------------1/12-12-12-12-12-12-12-12-12-12-12-12-12-12-12-12-|
E|--------------------------------------------------------------------|

("o, like o, like h, in your gut...")
G|----------------------------------------------|
D|----------------------------------------------|x4
A|------2-2/5-----------------2-2/5-------------|
E|-3~-----------5---3~---3~-----------5---3~----|

("in your gut, in your gut...")
G|---------------------|
D|---------------------|x2 on last chorus
A|---------------------|
E|--3~---------3~------|

Repeat Intro, Verse, and Chorus, and end.
comments
We did not receive enough feedback on this tab! Please rate:
print report bad tab
1 2 3 4 5
I want to post or [tab]
guest
You may want to rate the tab now too:
select rating
Please do not post tabs as comments. Select "correction" instead!