Oops, an error
Loading. Please wait.

Love Type Thing tab

version 2
version 2

Whole song

885 views 1 this week
no commentswrite comment
1 2 3 4 5
3 more votes to show rating
add to favorites
×
Save as Personal and add changes to this tab that will be seen only by you. Learn more ›
×
You can save this tab as Personal to edit and correct it or add notes. All changes will be seen only by you. Learn more »
launch autoscroll
font size
0
reset
how to read this tab
guitar tuner
edit
Autoscroll
slow
fast
+/-
esc
set tempo
stop
----------------------------------------------------------------------
                     LOVE TYPE THING – Tegan and Sara
----------------------------------------------------------------------
Tabbed by: Steph
Email: clichedplatitude@hotmail.com

Tuning: capo on 1 (both guitars)

Guitar 1:

Verses: basically just this line repeated with subtle variations:

e|-4-4-4-4-4-4-2-2----------------(0)-(2)---|
B|-----------------4-4-4-4-4-4--4-(4)-(4)---|
G|------------------------------------------| ()= switches between
D|------------------------------------------|    the two lines
A|------------------------------------------|    in different parts
E|------------------------------------------|

Chorus:
e|-------------0------|
B|-0---2---4----------|
G|--------------------|
D|--------------------|
A|--------------------|
E|--------------------|

Verse 2 has this variation (for example):

e|-4-4-4-4-4-4-2-2-------------11-9-7-4----|
B|-----------------4-4-4-4-4-4-------------|
G|-----------------------------------------|
D|-----------------------------------------|
A|-----------------------------------------|
E|-----------------------------------------|



Guitar 2:

Verses: E B     Chorus: A E

Verse 1:
E                                         B
My shirt tucked out and your hands tucked in
E                                              B
When dark things come calling they want you to hear
E                                            B
The sweet humming underground, sleepless and tired

Chorus:
  A                            E
A love type thing; a sure type thing

Verse 2:
E                                             B
Keep your ears wide open for the sound of the door
E                                                  B
If they want you they’ll take you, and that is for sure
E                                            B
The sweet humming underground, sleepless and soar

Chorus:
  A                            E
A love type thing; a sure type thing
  A                            E
A love type thing; a sure type thing
           A                            E
Oh, it’s a love type thing; a sure type thing
           A                            E
Oh, it’s a love type thing; a sure type thing

A  (ends on)  E

Guitar 1 ends with:
e|--4--4-4-2-2--0-0--------|
B|-------------------------|
G|-------------------------|
D|-------------------------|
A|-------------------------|
E|-------------------------|

Chords:
    E   B   A
e|--x---x---x-------|
B|--x---x---x-------|
G|--x---4---2-------|
D|--2---4---2-------|
A|--2---2---0-------|
E|--0---x---x-------|

If you want, substitute for open chords:

    E     B    Asus
e|--0-----2-----0-------|
B|--0-----4-----0-------|
G|--1-----4-----2-------|
D|--2-----4-----2-------|
A|--2-----2-----0-------|
E|--0-----x-----x-------|
Suggest correction
Creating personal tab
Creating personal tab
You can edit any tab online and save it as your Personal.

You can edit, replace or remove any tab part or add personal notes – all changes will be seen only by you.

Personal tabs can be accessed anytime from any device, even offline.
Learn more »
Give kudos to tab author, rate the tab!
1 2 3 4 5
comments
print report bad tab
guest
You may want to rate the tab now too:
select rating
Wanna post a correction for this tab? Suggest correction