Oops, an error
Loading. Please wait.

Monday Monday Monday Bass Tab

2,023 views 1 this week
no commentswrite comment
1 2 3 4 5
please rate
add to favorites
launch autoscroll
font size
0
reset
guitar tuner
Tab Pro tools
  • play this tab
  • loop segment
  • change instrument
  • show fretboard
  • metronome
×
Best way to learn
"Monday Monday Monday"
Autoscroll
slow
fast
+/-
esc
set tempo
stop
Difficulty
intermediate
Monday Monday Monday
Bass Tabs
Standard tuning
Note : A few days ago i tried looking for this tab on the internet but couldn't find it 
i decided to
make my own. It's my first tab but i think its all right. If you have any questions, 
or if u
noticed something wrong send me an email my email address is ryanburt@pobox.com. Just dont
spam me XD

0:00 – 0:24
G |------------------------------------|
D |------------------------------------|   x3
A |-2-2------2-2-----------------------|
E |--------4-----------4-4----2-4-4----|

0:24  - 0:29
G |-----------------------------------------------------------------|
D |-----------------------------------------------------------------|
A |-----------------------------------------------------------------|
E |-0-0-0-0-0-0-0-0-0-0-0-0-0-0-0-0-4-4-4-4-4-4-4-4-----------------|

0:29 – 0:49
G |---------------------------------------------------------------------|
D |---------------------------------------------------------------------|
A |------------------------------------------------------------2--------|
E |-4-4---0-0----2-2------4-4---0-0---2-2------4-4-0-2---0-4-2----------|

G |----------------------------------------------|
D |----------------------------------------------|
A |-------------------------------------2--------|
E |-4-4---0-0----2-2-------4-4-0-2---0-4-2-------|

0:49 – 1:05
G |--------------------------------------------------------------------|
D |--------------------------------------------------------------------|  x2
A |-2-2----2-2-----2-2---2---------------------------------------------|
E |-------4-------4-----------0-1-2-4-4--2-4-4--2-4-4--4-4-4-4---------|

1:05 – 1:11
G |-----------------------------------------------------------------|
D |-----------------------------------------------------------------|
A |-----------------------------------------------------------------|
E |-0-0-0-0-0-0-0-0-0-0-0-0-0-0-0-0-4-4-4-4-4-4-4-4-----------------|

1:11 – 1:30
G |---------------------------------------------------------------------|
D |---------------------------------------------------------------------|
A |------------------------------------------------------------2--------|
E |-4-4---0-0----2-2------4-4---0-0---2-2------4-4-0-2---0-4-2----------|

G |----------------------------------------------|
D |----------------------------------------------|
A |-------------------------------------2--------|
E |-4-4---0-0----2-2-------4-4-0-2---0-4-2-------|

1:30 – 1:46
G |------------------------------------------------------------------------------------|
D |------------------------------------------------------------------------------------|
A |----------------------2-2-2-2-2-2-2-2--6-6-6-6-6-6-6-6--7-7-7-7-7-7-7-7-------------| x2
E |-4-4-4-4-4-4-4-4--------------------------------------------------------------------|

1:46 – 1:50
G |---------------------|
D |---------------------|
A |---------------------|
E |-4-4---0-0----2-2----|

1:50 – 2:06
G |--------------------------------------------------------------------|
D |--------------------------------------------------------------------|  x2
A |-2-2----2-2-----2-2---2---------------------------------------------|
E |-------4-------4-----------0-1-2-4-4--2-4-4--2-4-4--4-4-4-4---------|

2:06 – 2:12
G |-----------------------------------------------------------------|
D |-----------------------------------------------------------------|
A |-----------------------------------------------------------------|
E |-0-0-0-0-0-0-0-0-0-0-0-0-0-0-0-0-4-4-4-4-4-4-4-4-----------------|

2:12 – 2:31
G |---------------------------------------------------------------------|
D |---------------------------------------------------------------------|
A |------------------------------------------------------------2--------|
E |-4-4---0-0----2-2------4-4---0-0---2-2------4-4-0-2---0-4-2----------|

G |----------------------------------------------|
D |----------------------------------------------|
A |-------------------------------------2--------|
E |-4-4---0-0----2-2-------4-4-0-2---0-4-2-------|

2:31 – 3:01
G |---------------------------------------------------------------|
D |---------------------------------------------------------------|
A |----------------------2-2-2-2-2-2-2-2--6-6-6-6-6-6-6-6---------|
E |-4-4-4-4-4-4-4-4-----------------------------------------------|

G |------------------------------------------------------------------------------------|
D |------------------------------------------------------------------------------------|
A |----------------------2-2-2-2-2-2-2-2--6-6-6-6-6-6-6-6--7-7-7-7-7-7-7-7-------------| x3
E |-4-4-4-4-4-4-4-4--------------------------------------------------------------------|

3:01 – 3:17
G |------------------------|
D |------------------------|
A |------------------------| x2
E |-4-4---0-0---2-2--------|

G |------|
D |------|
A |------|
E |-4-4--|
comments
We did not receive enough feedback on this tab! Please rate:
print report bad tab
1 2 3 4 5
I want to post or [tab]
guest
You may want to rate the tab now too:
select rating
Please do not post tabs as comments. Select "correction" instead!