Oops, an error
Loading. Please wait.

Nineteen Bass Tab

version 1
version 1

Whole song

Interactive

3,043 views 1 this week
no commentswrite comment
1 2 3 4 5
x 4
add to favorites
launch autoscroll
font size
0
reset
guitar tuner
Autoscroll
slow
fast
+/-
esc
set tempo
stop
Help us to improve Ultimate-Guitar.com Take our survey!
×
Author
Difficulty
intermediate
Artist: Tegan and Sara
Album: The Con
Song: Nineteen
Tuning: Standard

Verse:
0:14 "I feel you in my heart..."
G |----------------------------------------------------------------------|
D |--------------------55---555------------------------55---555----------|
A |----------------------------------------------------------------------|
E |-111---555--5\-333-----3-----3533--111--555--5\-333----3-----3533-----|

   -----------------------------------|
   ------------------55---555---------|
   -----------------------------------|
   -111--555--5\-333----3-----33------|

Chorus:
G |---------------------------------------------------------------------|
D |-----------222222-0233333333---------------------222222-0233333333---|
A |--------33-------------------0003330----------33---------------------|
E |-111111-----------------------------3--111111------------------------|

  ------------------|
  -----------/777---|
  -0003330----------|
  --------3---------|

Verse:
"I felt you in my life..."
G |----------------------------------------------------------------------|
D |--------------------55---555------------------------55---555----------|
A |----------------------------------------------------------------------|
E |-111---555--5\-333-----3-----3533--111--555--5\-333----3-----3533-----|

   -------------------------------------------------------------------|
   ------------------55---555-----------------------55---555----------|
   -------------------------------------------------------------------|
   -111--555--5\-333----3-----3533--111--555--5\-333----3-----33------|

Chorus:
G |---------------------------------------------------------------------|
D |-----------222222-0233333333---------------------222222-0233333333---|
A |--------33-------------------0003330----------33---------------------|
E |-111111-----------------------------3--111111------------------------|

  --------------------------------------------------------------------------|
  ---------------------222222-0233333333------------------222222-0233333333-|
  -0003330----------33------------------0003330--------33-------------------|
  --------3--111111----------------------------3--111111--------------------|

  --------------------------------------|
  ------------------55----7~------------|
  -0003330-----/777----77---------------|
  --------3-----------------------------|


*No bass on the bridge: 1:48 "Flew home back..."

Chorus:
2:28 "Call me..."
G |---------------------------------------------------------------------|
D |-----------222222-0233333333---------------------222222-0233333333---|
A |--------33-------------------0003330----------33---------------------|
E |-111111-----------------------------3--111111------------------------|

  ----------------------------------------------------------------|
  ---------------------222222-0233333333----------------55----7~~-|
  -0003330----------33------------------0003330--- /777----77-----|
  --------3--111111----------------------------3------------------|
Suggest correction
comments
print report bad tab
guest
You may want to rate the tab now too:
select rating
Wanna post a correction for this tab? Suggest correction