Oops, an error
Loading. Please wait.

Northshore Bass Tab

version 1
version 1

Whole song

Interactive

4,547 views 12 this week
no commentswrite comment
1 2 3 4 5
excellent!
x 5
add to favorites
launch autoscroll
font size
0
reset
guitar tuner
Tab Pro tools
  • play this tab
  • loop segment
  • change instrument
  • show fretboard
  • metronome
×
Best way to learn
"Northshore"
Autoscroll
slow
fast
+/-
esc
set tempo
stop
Contributor
Tegan And Sara
Northshore
Sainthood

Tuning: Standard

Bass comes in at 0:03

Verse 1:  (0:03 - 0:16)
G|-------------------------------------|
D|------------------77-----------------|  X2
A|---------55-77-99----55-77-----------|
E|---22-55-----------------------------|

Chorus: (0:17 - 0:25)  
G|---------------------------------------------------------------------|
D|---------------------------------------------------------------------|
A|------------------5555555555557h999----------------7777777777777777--|
E|--2222222222222222-----------------5555555555555555------------------|

Fill: (0:26 - 0:28)
G|-----------------------|
D|-----------------------|
A|--------55-77----------|
E|--22-55----------------|

Verse 2:  (0:29 - 0:42)
G|-------------------------------------|
D|------------------77-----------------|  X2
A|---------55-77-99----55-77-----------|
E|---22-55-----------------------------|

Chorus:  (0:43 - 0:51)
G|---------------------------------------------------------------------|
D|---------------------------------------------------------------------|
A|------------------5555555555557h999----------------7777777777777777--|
E|--2222222222222222-----------------5555555555555555------------------|

Fill: (0:52 - 0:57)
G|-----------------------|
D|-----------------------|  X2
A|--------55-77----------|
E|--22-55----------------|

Bridge:(0:58 - 1:06)  
G|-------------------|         G|-------------------|
D|-------------------|  pause  D|-------------------|
A|--------55-77------|         A|--------55-77------|
E|--22-55------------|         E|--22-55------------|

Fill: (1:07 - 1:10)
G|-----------------------|
D|-----77----------------|  
A|--------55-77----------|
E|--99-------------------|

Verse 3:  (1:11 - 1:23)
G|-------------------------------------|
D|------------------77-----------------|  X2
A|---------55-77-99----55-77-----------|
E|---22-55-----------------------------|

Chorus:  (1:24 - 1:59)
G|---------------------------------------------------------------------|
D|---------------------------------------------------------------------|  X4
A|------------------5555555555557h999----------------7777777777777777--|
E|--2222222222222222-----------------5555555555555555------------------|

Ending:
G|----------|
D|----------| 
A|--9-------|
E|----2-----|

comments
print report bad tab
I want to post or [tab]
guest
You may want to rate the tab now too:
select rating
Please do not post tabs as comments. Select "correction" instead!