Oops, an error
Loading. Please wait.

On Directing Bass Tab

version 3
version 3

Whole song

366 views 3 this week
no commentswrite comment
1 2 3 4 5
2 more votes to show rating
add to favorites
launch autoscroll
font size
0
reset
guitar tuner
Autoscroll
slow
fast
+/-
esc
set tempo
stop
Help us to improve Ultimate-Guitar.com Take our survey!
×
Author
Tuning
D A D G B E
-------------------------------------------------------------------------------
     ON DIRECTING - Tegan and Sara
-------------------------------------------------------------------------------
Tabbed by: BREE

(I can't take credit for this tab. It's from this YouTube video: 
https://www.youtube.com/watch?v=FB9Pu0RVtbs. I 
just wrote down what I saw him playing)

(DROP D TUNING)
(*Bass comes in at 00:14 -- When Sara begins to sing*)

(Verse)
"You're directing me..."

G|---------------------------------------------------------------------------|
D|-------------3-3----------3-3----------------------------------------------|
A|-1-1-1-1-1-1------1-1-1-1----1-1--------3-3-3-3-3-3-3-1-3-3-3-3-3-3-3-3----|
D|---------------------------------------------------------------------------|

"Get the cuts..."
G|---------------------------------------------------------------------------|
D|-------------3-3----------3-3----------------------------------------------|
A|-1-1-1-1-1-1------1-1-1-1----1-1--------3-3-3-3-3-3-3-1-3-3-3-3-5-5-5-5----|
D|---------------------------------------------------------------------------|


(Chorus 1)
"Go steady with me..."
G|---------------------------------------------------------------------------|
D|---------------------------------------------------------------------------|
A|---------------------------------------------------------------------------|       (X2)
D|-1-1-1-1-1-1-1-1-1-1-1-1-1-1-1-1--5-5-5-5-5-5-5-5-5-5-5-5-5-5-5-5----------|


(Verse 2)
"You're directing me..."

G|---------------------------------------------------------------------------|
D|-------------3-3----------3-3----------------------------------------------|
A|-1-1-1-1-1-1------1-1-1-1----1-1--------3-3-3-3-3-3-3-1-3-3-3-3-3-3-3-3----|
D|---------------------------------------------------------------------------|

"Make those eyes at me..."
G|---------------------------------------------------------------------------|
D|-------------3-3----------3-3----------------------------------------------|
A|-1-1-1-1-1-1------1-1-1-1----1-1--------3-3-3-3-3-3-3-1-3-3-3-3-5-5-5-5----|
D|---------------------------------------------------------------------------|


(Chorus 2)
"Go steady...I know it..."

G|---------------------------------------------------------------------------|
D|-----------------------------------5-5-5-5-5-5-5-5-5-5-5-5-5h7/8-----------|
A|-6-6-6-6-6-6-6-6-6-6-6-6-8-8-8-8-------------------------------------------|
D|---------------------------------------------------------------------------|

"I get talking..."
G|---------------------------------------------------------------------------|
D|----------------------------7h8----5-5-5-5-5-5-5-5-5-5-5h7/8---------------|
A|-6-6-6-6-6-6-6-6-6-6-6-6-6-----8-----------------------------1-1-1---------|
D|---------------------------------------------------------------------------|

"Go steady...I know it..."
G|---------------------------------------------------------------------------|
D|----------------------------7h8----5-5-5-5-5-5-5-5-5-5-5-5-5h7/8-----------|
A|-6-6-6-6-6-6-6-6-6-6-6-6-6-----8-------------------------------------------|
D|---------------------------------------------------------------------------|

"I get talking..."
G|---------------------------------------------------------------------------|
D|----------------------------7h8----5-5-5-5-5-5-5-5-5-5-5h7/8---------------|
A|-6-6-6-6-6-6-6-6-6-6-6-6-6-----8-----------------------------1-1-1---------|
D|---------------------------------------------------------------------------|


(Bridge)
"(Hold onto me) You're directing me..."
G|---------------------------------------------------------------------------|
D|---------------------------------------------------------------------------|
A|---------------------------------------------------------------------------|      (2x)
D|-8-8-8-8-8-8-8-8-5-5-5-5-3-3-3-3-8-8-8-8-8-8-8-8-5-5-5-5-3-3-3-3-----------|

G|---------------------------------------------------------------------------|
D|-8-8-8-8-8-8-8-8-5-5-5-5-3-3-3-3-8-8-8-8-8-8-8-8-5-5-5-5-3-3-3-3-----------|      (2x)
A|---------------------------------------------------------------------------|
D|---------------------------------------------------------------------------|

(Chorus 3)
"Go steady...I know it..."
G|---------------------------------------------------------------------------|
D|----------------------------7h8----5-5-5-5-5-5-5-5-5-5-5-5-5h7/8-----------|
A|-6-6-6-6-6-6-6-6-6-6-6-6-6-----8-------------------------------------------|
D|---------------------------------------------------------------------------|
                                                                                    (4x)
"I get talking..."  ON FINAL CHORUS, END ON 8th FRET OF THE HIGH D.                 
G|---------------------------------------------------------------------------|
D|----------------------------7h8----5-5-5-5-5-5-5-5-5-5-5h7/8---------------|
A|-6-6-6-6-6-6-6-6-6-6-6-6-6-----8-----------------------------1-1-1---------|
D|---------------------------------------------------------------------------|


Verse 1 (1x)
Chorus (1x)
Verse 2 (1x)
Chorus 2 (1x)
Bridge (1x)
Chorus 3 (4x)

============================================================================
Suggest correction
Give kudos to tab author, rate the tab!
1 2 3 4 5
comments
print report bad tab
guest
You may want to rate the tab now too:
select rating
Wanna post a correction for this tab? Suggest correction