Oops, an error
Loading. Please wait.

Proud Chords

version 2
version 2

Whole song

2,755 views 1 this week
no commentswrite comment
1 2 3 4 5
please rate
add to favorites
launch autoscroll
font size
0
reset
transpose
0
reset
display chords
guitar tuner
Autoscroll
slow
fast
+/-
esc
set tempo
stop
Help us to improve Ultimate-Guitar.com Take our survey!
×
Author
Capo
5th fret
Artist : Tegan & Sara
Song : Proud
Album : Under Feet Like Ours / This Business Of Art

Tabbed by Yuna.

This was tabbed after the UFLO version but it works fine for the TBOA version as well :]


Standard tuning, capo on 5th fret

Listen to the actual song to get the right rhythm, you'll notice the 4th & 5th chord 
strummed once and very quickly :

e |-----------------------|
B |-----------------------|
G |--0---0---0---------0--|
D |--9---5---7---------0--|   X6
A |--7---3---5---7--5--0--|
E |--0---0---0---7--5--0--|

Freedom and blood
I make my mark and fight for tomorrow
Finally I've got something
Something I can raise my voice for
Fine tell them who you really want
Fine well you'll get yours and I'll get mine
Proud, I'm proud to be proud to see
They said proud
I'm proud to be proud to be me


e |-----------------|
B |-----------------|
G |--0---0---0---0--|
D |--9---5---5---7--|   X2
A |--7---3---3---5--|
E |--0---0---0---0--|

They said tell me oh you've got to tell me


e |-----------------------|
B |-----------------------|
G |--0---0---0---------0--|
D |--9---5---7---------0--|   X6
A |--7---3---5---7--5--0--|
E |--0---0---0---7--5--0--|

Freedom's rough
So we take our stand and fight for tomorrow
Finally we got something something we can
Bring down the house with
Fine tell them who you think you are
Fine tell them fine is what you are
Proud, I'm proud to be proud to see
They said proud
I'm proud to be proud to be me


e |-----------------|
B |-----------------|
G |--0---0---0---0--|
D |--9---5---5---7--|   X2
A |--7---3---3---5--|
E |--0---0---0---0--|

They said tell me oh you've got to tell me


e |--------|
B |--------|
G |--0--0--|
D |--5--7--|   X11
A |--3--5--|
E |--0--0--|

And when you finally figure out what else you need
You better think of me (think of me)
No no no no (repeated)


e |-----------------------|
B |-----------------------|
G |--0---0---0---------0--|
D |--9---5---7---------0--|   Play this until the end of the song
A |--7---3---5---7--5--0--|
E |--0---0---0---7--5--0--|

When I get up
I feel the rhythm in my fingers
I get up - I hear the rhythm in my laughter
Take a second look
You might find that I am stronger
Take a second look
You might find that you are stronger
Imagination, inspiration
It's only fair that I tell you
I plan on leaving here tonight with my pride
It gets me every time with my pride
I'm proud to be I'm proud to be me
Suggest correction
Give kudos to tab author, rate the tab!
1 2 3 4 5
comments
print report bad tab
guest
You may want to rate the tab now too:
select rating
Please do not post tabs as comments. Select "correction" instead!