Oops, an error
Loading. Please wait.

Sentimental Tune Tab

version 2
version 2

Acoustic

Whole song

373 views 6 this week
no commentswrite comment
1 2 3 4 5
please rate
add to favorites
launch autoscroll
font size
0
reset
how to read this tab
guitar tuner
Autoscroll
slow
fast
+/-
esc
set tempo
stop
Help us to improve Ultimate-Guitar.com Take our survey!
×
Author
Difficulty
Tuning
Capo
la6strings 1,375
novice
A E A D F# B
4th fret
Artist: Tegan and Sara
Song: Sentimental Tune
Album: Sainthood
Tuning: e B G D G E (A string tuned down to G) Capo on 4th

Reference Video: http://www.youtube.com/watch?v=Ken6-Qa_5mw&feature=BFa&list=ULKDXdulJSq9M

Video to jam along with: http://www.youtube.com/watch?v=V7FIIr7HzZY

Intro 

e |---------------------------------|
B |--0----0----0-----0----0-----0---|
G |--0----11---0-----11---6-----0---|
D |--13---0----13----0----6-----6---|
G |--x----x----x-----x----0-----0---|   
E |--12---12---12----12---0-----7---|

Verse 1

e |---------------------------------|
B |--0----0----0-----0----0-----0---|
G |--0----11---0-----11---6-----0---|
D |--13---0----13----0----6-----6---|
G |--x----x----x-----x----0-----0---|   
E |--12---12---12----12---0-----7---|

You in a simple gray coat in a simple white room,

Interlude       

e |---------------------|
B |---0----0----0-------|
G |---11---8----6-------|
D |---0----8----6-------| (x2)
G |---9----0----0-------|       
E |---x----x----x-------|

Oh, now you know you know it now.
And so, now you know you know it now.

e |---------------------------------|
B |--0----0----0-----0----0-----0---|
G |--0----11---0-----11---6-----0---|
D |--13---0----13----0----6-----6---|
G |--x----x----x-----x----0-----0---|   
E |--12---12---12----12---0-----7---|

You hate the tenderhearted torch song.
You catch a flame to my sentiment, my sentimental tune.

Interlude

Chorus


e |--0----0---0--------|
B |--0----0---0--------|
G |--0----0---0--------| (x4)
D |--11---8---6--------|
G |--0----0---0--------|        
E |--12---9---7--------|

Hard-hearted don't worry I'm ready for a fight.
Unnerved, the nerve, you're nervous, nervous that I'm right.
Hard-hearted don't worry I'm ready for a fight.
Unnerved, the nerve, you're nervous, nervous that I'm right.

e |---------------------------------|
B |--0----0----0-----0----0-----0---|
G |--0----11---0-----11---6-----0---|
D |--13---0----13----0----6-----6---|
G |--x----x----x-----x----0-----0---|   
E |--12---12---12----12---0-----7---|


Verse 2

Now with your cause and affection on my mind,
I won't yield, throw caution into the blaze.

Interlude

Oh, now you know you know it now.
And so, now you know you know it now.

Verse 2 (cont’d)
Watch, with a bit of friction I'll be under your clothes.
With a bit of focus I'll be under your skin.

Interlude

Chorus

Outro

e |---------------------|
B |---0----0----0-------|
G |---11---8----6-------|
D |---0----8----6-------| (x2)
G |---9----0----0-------|       
E |---x----x----x-------|

Oh, now you know you know it now.
And so, now you know you know it now.

Suggest correction new What's this?
You can suggest a correction to this tab. Community and Mods will review your correction and vote to approve or reject it.
comments
We did not receive enough feedback on this tab! Please rate:
print report bad tab
1 2 3 4 5
guest
You may want to rate the tab now too:
select rating
Please do not post tabs as comments. Select "correction" instead!