Oops, an error
Loading. Please wait.

Sentimental Tune Tab

version 1
version 1

Whole song

4,050 views 1 this week
no commentswrite comment
1 2 3 4 5
accurate
x 5
add to favorites
launch autoscroll
font size
0
reset
how to read this tab
guitar tuner
Autoscroll
slow
fast
+/-
esc
set tempo
stop
Help us to improve Ultimate-Guitar.com Take our survey!
×
Contributor
Difficulty
Capo
svp 43
intermediate
5th fret
Hey, I spent a few hours trying to figure this bad boy out, because I do love this song, 
it turns out it's fun to play too.
This tab is not perfect but it sounds pretty close.
This is my first tab and I do not know the names of the chords, so bear with me. :)

Tabbed by: svp
Tuning: Drop the A string to G (EGDGBe)
Capo: 5th fret
Note: The amount of times the chord is written in succession represents the amount of 
it is played for.

INTRO/VERSE
e---xx--xx--xx--xx---0000---0000---|
B---88--88--88--88---0000---0000---|
G---77--xx--77--xx---2222---0000---|
D---99--99--99--99---2222---2222---|
G---00--77--00--77---0000---0000---|
E---xx--xx--xx--xx---xxxx---3333---|

"You in a simple grey coat..."
e---xx--xx--xx--xx---0000---0000---|
B---88--88--88--88---0000---0000---|
G---77--xx--77--xx---2222---0000---|
D---99--99--99--99---2222---2222---|
G---00--77--00--77---0000---0000---|
E---xx--xx--xx--xx---xxxx---3333---|

PRE-CHORUS
"Oh, now you know you now it..."
e--0000---0000---00000000-----|
B--0000---0000---00000000-----|
G--0000---0000---00000000-----|
D--7777---4444---22222222-----|
G--0000---0000---00000000-----|
E--8888---5555---33333333-----|x2

INTRO/VERSE
"You hate the tender hearted..."
e---xx--xx--xx--xx---0000---0000------|
B---88--88--88--88---0000---0000------|
G---77--xx--77--xx---2222---0000------|
D---99--99--99--99---2222---2222------|
G---00--77--00--77---0000---0000------|
E---xx--xx--xx--xx---xxxx---3333------|

"You catch a flame to my sentiment..."
e---xx--xx--xx--xx---0000---0000------|
B---88--88--88--88---0000---0000------|
G---77--xx--77--xx---2222---0000------|
D---99--99--99--99---2222---2222------|
G---00--77--00--77---0000---0000------|
E---xx--xx--xx--xx---xxxx---3333------|


PRE-CHORUS
"Tune/Oh, now you know you know it..."
e--0000---0000---00000000-----|
B--0000---0000---00000000-----|
G--0000---0000---00000000-----|
D--7777---4444---22222222-----|
G--0000---0000---00000000-----|
E--8888---5555---33333333-----|x2

CHORUS
"Hard-hearted, don't worry..."
e---xxxx--0000--00000000-----|
B---8888--0000--00000000-----|
G---7777--0000--00000000-----|
D---9999--4444--22222222-----|
G---0000--0000--00000000-----|
E---xxxx--5555--33333333-----|x4

And it continues as such throughout the whole song.
During the instrumental part/bridge, the following chord is played:
e--x--|
B--8--|
G--7--|
D--9--|
G--0--|
E--x--|

But when the lyrics come back in, it transitions back to the intro/verse.
I hope this wasn't too confusing.

svp.
comments
print report bad tab
I want to post or [tab]
guest
You may want to rate the tab now too:
select rating
Please do not post tabs as comments. Select "correction" instead!