Oops, an error
Loading. Please wait.

Sheets Bass Tab

1,067 views 3 this week
no commentswrite comment
1 2 3 4 5
please rate
add to favorites
launch autoscroll
font size
0
reset
guitar tuner
Tab Pro tools
  • play this tab
  • loop segment
  • change instrument
  • show fretboard
  • metronome
×
Best way to learn
"Sheets"
Autoscroll
slow
fast
+/-
esc
set tempo
stop
Contributor
-------------------------------------------------------------------------------
			     SHEETS - Tegan and Sara
-------------------------------------------------------------------------------

Tabbed By : Luciano
Tuning: Standard

This is my first tab so I hope it's alright. If there's anything I need to change, 
tell me so I can fix it.


1st Verse: 0:04 - 0:16

G|---------------------------------------------|
D|------------10---15--------------------------|      
A|--12---10-------------12--10--10\8-----------|
E|---------------------------------------------| 

Chorus: 0:17 - 0:30

G|----------------------------------|
D|----------------------------------|
A|--8\5-3-2-----5-7-2----8-10-12----|
E|----------35----------------------|

G|------------|     |---------|
D|------------|     |--3-5-7--|
A|--8-10-12---| or  |---------|
E|------------|     |---------|

2nd Verse: 0:31 - 0:42

G|---------------------------------|
D|---------------------------------|
A|--------3------------------------|        
E|--5--3-----1----5--3--1--1-------|

Chorus: 0:43 - 1:05

G|---------------------------------|
D|---------------------------------|
A|-5-3-2-------5-7-2---8-10-12-----| (x2) 
E|--------35-----------------------|

G|------------|
D|------------|
A|--8-10-12---|
E|------------|

1:06 - 1:18

G|-----------------------------------------|
D|-----------------------------------------|
A|-----------------------------------------|
E|--5--8-5----8---5---8---5---8---5--------|

1:19 - 1:43

G|--------------------------------------------------------|
D|---------------------------10(x8)---15(x4)-15-14-12-14--|
A|--12(x6)-12h14---10(x8)---------------------------------|
E|--------------------------------------------------------|

G|--------------------------------------------------------|
D|--------------------------------------------------------|
A|--12(x6)-12h14---10(x8)----8-7h8-7h8-7h8-78-------------|
E|--------------------------------------------------------|

G|--------------------------------------------------------|
D|---------------------------10(x8)---15(x4)-15-14-12-----|
A|--12(x6)-12h14---10(x8)----------------------------15---|
E|--------------------------------------------------------|

G|-------------------------------------------|
D|-------------------------------------------|
A|--12(x6)-12h14---10(x8)---8-7h8-7h8--------|
E|-------------------------------------------|


Chorus: 1:44 - 1:59

G|------------  ----------      ---------------------|
D|------------  ----------      ---------------------| 
A|--5-3-2-----  --5-3-2--- (x2) --5-7-2----8-10-12-\-| 
E|---------35-  ----------      ---------------------|

2:00 - 2:28

G|------------|
D|------------|
A|--8-10-12---| (x9)
E|------------|

2:29 - 2:54

G|--------------------------------------------------------|
D|---------------------------10(x8)---15(x4)-15-14-12-14--|
A|--12(x6)-12h14---10(x8)---------------------------------|
E|--------------------------------------------------------|

G|--------------------------------------------------------|
D|--------------------------------------------------------|
A|--12(x6)-12h14---10(x8)----8-7h8-7h8-7h8-78-------------|
E|--------------------------------------------------------|

G|--------------------------------------------------------|
D|---------------------------10(x8)---15(x4)-15-14-12-----|
A|--12(x6)-12h14---10(x8)----------------------------15---|
E|--------------------------------------------------------|

G|---------------------------------------------|
D|---------------------------------------------|
A|--12(x6)-12h14---10(x8)---8-7h8-7h8-7h8-75---|
E|------------------------------------------8--|

Outro: 2:55 - 3:16

G|--------------------------|
D|--------------------------|
A|--------3--8--------------|        
E|--5--3---------5--3--1----|



| /  slide up
| \  slide down
| h  hammer-on
| p  pull-off
| ~  vibrato
| +  harmonic
| x  Mute note
===============================================================================	
comments
We did not receive enough feedback on this tab! Please rate:
print report bad tab
1 2 3 4 5
I want to post or [tab]
guest
You may want to rate the tab now too:
select rating
Please do not post tabs as comments. Select "correction" instead!