Oops, an error
Loading. Please wait.

Soil Soil Tab

version 1
version 1

Whole song

Interactive

19,095 views 33 this week
3 commentsread comments
1 2 3 4 5
x 12
add to favorites
launch autoscroll
font size
0
reset
how to read this tab
guitar tuner
Autoscroll
slow
fast
+/-
esc
set tempo
stop
Help us to improve Ultimate-Guitar.com Take our survey!
×
Author
Capo
2nd fret
Title: Soil, Soil
Artist: Tegan and Sara

Tuning: Drop D
Capo 2nd fret

VERSE:
(Oh, and I'm feeling directionless...)
e|--------------------------------------------------|
B|----1-----1-----1-----1-----1-----1-----1-----1---|
G|------0-----0-----0-----0-----2-----2-----2-----2-|
D|--------------------------------------------------|
A|--3-----3-----3-----3-----0-----0-----0-----0-----|
D|--------------------------------------------------|

PRE-CHORUS:
(All you need to save me...)
e|--------------------------------------------------|
B|----1-----1-----1-----1-----1-----1-----1-----1---|
G|------0-----0-----0-----0-----2-----2-----2-----2-|
D|--------------------------------------------------|
A|--3-----3-----3-----3-----0-----0-----0-----0-----|
D|--------------------------------------------------|

CHORUS:
(Call, and I'll be curled on the floor...)
e|--------------------------------------------------|
B|----1-----1-----1-----1-----5-----5-----3-----3---|
G|----0-----0-----0-----0-----0-----0-----0-----0---|
D|--------------------------------------------------|
A|------3-----3-----3-----3-----7-----7-----5-----5-|
E|--3-----3-----3-----3-----7-----7-----5-----5-----|

ORDER OF PARTS:
-Verse (x2)
-Pre-Chorus (x2)
-Chorus (x2)
-Verse (x2)
-Pre-Chorus (x2)
-Chorus (x2)
Suggest correction
comments
print report bad tab
3 comments total.
0 reply
tremblingwater 10 Sep 07, 2007 06:21 PM

thank you

+2 reply
fendernoob_2007 16 Apr 08, 2008 10:18 PM

why did you put drop d tuning but have the regular tuning beside the tab?

0 reply
The_Only_Except 21 Oct 24, 2011 06:56 PM

Thank You!!! This tab is great! :)

guest
You may want to rate the tab now too:
select rating
Wanna post a correction for this tab? Suggest correction