Oops, an error
Loading. Please wait.

Soil Soil Bass Tab

version 2
version 2

Whole song

Interactive

377 views 1 this week
no commentswrite comment
1 2 3 4 5
please rate
add to favorites
launch autoscroll
font size
0
reset
guitar tuner
Tab Pro tools
  • play this tab
  • loop segment
  • change instrument
  • show fretboard
  • metronome
×
Best way to learn
"Soil Soil"
Autoscroll
slow
fast
+/-
esc
set tempo
stop
Contributor
Difficulty
Tuning
novice
D A D G B E
Soil, Soil
Tegan and Sara
The Con

Bass performed on the album by Hunter Burgan.

Drop D; swing the eighth notes

Verse:
G|--------------|--------------|--------------|--------------|
D|--------------|--------------|--------------|--------------|
A|-5--5--5--4---|-2~-------2---|-5--5--5--4-7-|-2~-----------|
D|--------------|--------------|--------------|--------------|

Pre-Chorus:
G|--------------|--------------|--------------|--------------|
D|--------------|--------------|--------------|--------------|
A|--------------|--------------|--------------|--------------|
D|-0--2--4--7---|-9~-----------|-0--2--4--7---|-9~-----------|

Chorus:
G|--------------|--------------|--------------|--------------|
D|--------------|--------------|--------------|--------------|
A|--------------|--------------|--------------|--------------|
D|-0--2--9--7---|-0--2--9--7---|-0--2--9--7---|-0--2--9--7---|

G|--------------|--------------|
D|--------------|--------------|
A|--------------|--------------|
D|-7~----7~-----|-7--7--7--7---|

Verse:
G|--------------|--------------|--------------|--------------|
D|--------------|--------------|--------------|--------------|
A|-5--5--5--4-7-|-2~-------2---|-5--5--5--4-7-|-2~-----------|
D|--------------|--------------|--------------|----------9\--|

Pre-Chorus:
G|--------------|--------------|--------------|--------------|
D|--------------|--------------|--------------|--------------|
A|--------------|-2-4-5--5--5--|--------------|-2-4-5-4-5~---|
D|-0--2--4--7---|--------------|-0--2--4--7---|--------------|

Chorus:
G|--------------|--------------|--------------|--------------|
D|--------------|--------------|--------------|--------------|
A|--------------|--------------|--------------|--------------|
D|-0--2--9--7---|-0--2--9--7---|-0--2--9--7---|-0--2--9--7---|

G|--------------|--------------|
D|--------------|--------------|
A|--------------|--------------|
D|-0--2--9--7---|-0--2~--------|

Credit for tab goes to Damone_player07, they almost had it right, but the song is 
in Drop D, not standard.
comments
We did not receive enough feedback on this tab! Please rate:
print report bad tab
1 2 3 4 5
I want to post or [tab]
guest
You may want to rate the tab now too:
select rating
Please do not post tabs as comments. Select "correction" instead!