Oops, an error
Loading. Please wait.

Someday Bass Tab

538 views 1 this week
no commentswrite comment
1 2 3 4 5
please rate
add to favorites
launch autoscroll
font size
0
reset
guitar tuner
Tab Pro tools
  • play this tab
  • loop segment
  • change instrument
  • show fretboard
  • metronome
×
Best way to learn
"Someday"
Autoscroll
slow
fast
+/-
esc
set tempo
stop
Contributor
Difficulty
intermediate
-------------------------------------------------------------------------------
			                               Someday - Tegan and Sara
-------------------------------------------------------------------------------

Tabbed By : Amberly F.

As asked for on my youtube channel, here's the bass tab for Tegan and Sara's "Someday."
Sounds as close to accurate as I can get. If you want a visual aide while playing, feel
free to check out my youtube channel where there's a video of me playing this song 
(youtube username is the same as here). However, I made this tab a bit more cleaner than what
I played in my video.

During the "I don't wanna know..." part, I suggest listening closely to where the note
changes and playing along with a whole note until you can get the timing right.  I'm not
too sure that what I have tabbed out is exactly right in timing when to change notes, 
but it's as close as I could get.  Enjoy!

VERSE 1
G|-----------------------------------------------|
D|----------------5---------------------5--------|
A|-3-3-03-3--7-8----3-0-3-3-03-3--7-8----0 3-3---|
E|-----------------------------------------------|

G|-----|
D|-----|  (After "They say step down...")
A|-3~--|
E|-----|


CHORUS
G|------------------------------------------|
D|-----9-10-9-7-5----5------9-10-9-7-5-7-5--|       X2
A|-8~--------------7-----8~-----------------|
E|------------------------------------------|

VERSE 2
G|------------------------------------------|
D|-------------5----------------5-----------|
A|-3-3---/7-8----3-03-3---/7-8----3-0---3~--|
E|------------------------------------------|

G|--------------------------------------|
D|----------------5-3-2--------5-3-2----|
A|-3~--------3~---------3--3~--------3--|
E|--------------------------------------|

CHORUS X4

"I DON'T WANNA KNOW..."
G|---------------------------------2255--|
D|-3333333333225522-333333333355---------|
A|---------------------------------------|
E|---------------------------------------|

G|---------------------------------------|
D|-3333333333225522-333333333333---------|
A|----------------------------------3-3--|
E|---------------------------------------|

G|---------------------------------2255--|
D|-3333333333225522-333333333355---------|
A|---------------------------------------|
E|---------------------------------------|

G|------------------------------------------|
D|-3333333333225522-333333333333222---------|
A|-------------------------------------3-3--|
E|------------------------------------------|

REST

CHORUS X2

G|------------------------------------------------|
D|----------------5~-------------------5----------|
A|-3-3--3-3--7-8-------3-3---3-3--7-8---3-03-3-3--|
E|------------------------------------------------|

G|---------------------------------------|
D|------------5--------------------5-----|
A|-3-3---7-8----3-03-3--3-3--7-8-----3~--|
E|---------------------------------------|



| /  slide up
| \  slide down
| h  hammer-on
| p  pull-off
| ~  vibrato
| +  harmonic
| x  Mute note
===============================================================================
comments
We did not receive enough feedback on this tab! Please rate:
print report bad tab
1 2 3 4 5
I want to post or [tab]
guest
You may want to rate the tab now too:
select rating
Please do not post tabs as comments. Select "correction" instead!