Oops, an error
Loading. Please wait.

Take Me Anywhere Bass Tab

251 views 1 this week
no commentswrite comment
1 2 3 4 5
please rate
add to favorites
launch autoscroll
font size
0
reset
guitar tuner
Autoscroll
slow
fast
+/-
esc
set tempo
stop
Help us to improve Ultimate-Guitar.com Take our survey!
×
Author
Difficulty
novice
E standard tuning

In this tab, the lower-case "e" means 11th fret

Heavily edited version of my first-ever tab

Audio help track -- http://www.dailymotion.com/video/x38h2u4
==================================================

No bass in verse

Pre-chorus [0:13-0:16]
G|------------------------|
D|------------------------|
A|------------------------|
E|-6--8--6--4--3--4--3--4-|

Chorus [0:17-0:23]
G|-----------------------------------------------------------------|
D|-----------------------------------------------------------------|
A|-----------------6-6-6-6-6-6-6-6/e-e-e-e-e-e-e-e-6-6-6-6-6-6-6-6-|
E|-4-4-4-4-4-4-4-4-------------------------------------------------|

No bass in verse

Repeat Pre-chorus [0:37-0:40]

Repeat Chorus [0:41-0:47]

Repeat Pre-chorus [0:48-0:50]

Repeat Chorus [0:51-0:57]

Bridge (x2) [0:58-1:11]
G|--------------------------------------|
D|--------------------------------------|
A|-----------------6--6-6---------------|
E|-4--4-4--4--4-4----------6--6-8-8-6\3-|

No bass in verse

Repeat Pre-chorus [1:25-1:28]

Repeat Chorus [1:28-1:35]

Repeat Pre-chorus [1:35-1:38]

Repeat Chorus [1:38-1:45]

Repeat Bridge (x4) [1:45-2:12]

Repeat Chorus [2:13-2:19]

End Chorus [2:19-2:30]
G|-------------------------------------------------------------------|
D|-------------------------------------------------------------------|
A|-----------------6-6-6-6-6-6-6-6-----------------6-6-6-6-6~~~~~~~~-|
E|-4-4-4-4-4-4-4-4-----------------4-4-4-4-4-4-4-4-------------------|


===============================================================

| /  slide up
| \  slide down
| ~  ring out
===============================================================
Suggest correction
What's this?
You can suggest a correction to this tab. Community and Mods will review your correction and vote to approve or reject it.
comments
We did not receive enough feedback on this tab! Please rate:
print report bad tab
1 2 3 4 5
guest
You may want to rate the tab now too:
select rating
Please do not post tabs as comments. Select "correction" instead!