Oops, an error
Loading. Please wait.

The Ocean Bass Tab

version 1
version 1

Whole song

Interactive

1,512 views 1 this week
no commentswrite comment
1 2 3 4 5
2 more votes to show rating
add to favorites
launch autoscroll
font size
0
reset
guitar tuner
Autoscroll
slow
fast
+/-
esc
set tempo
stop
Help us to improve Ultimate-Guitar.com Take our survey!
×
Author
Tabbed By David Gonzales

"I tried to space it out the best I could. All the notes are there, so just listen to it 
for the rhythm."

Verse 1 (0:18)
G|-------------------------------------------------|
D|-7------9--7-----------9--7-------9-----------9--|
A|--------------10----7----------7-----10----7-----|
E|-------------------------------------------------|

G|-----------------------------------------7----7-6-4-0-|
D|-7------9--7-----------9--7-------9--5------5---------|
A|--------------10----7----------7----------------------|
E|------------------------------------------------------|


Chorus
G|------------------------2--------------|
D|---------------------------------------|
A|--2-----5--10----7--0-----------4-5-7--|
E|---------------------------------------|


Verse 2 (0:57)
G|-------------------------------------------------|
D|-7------9--7-----------9--7-------9-----------9--|
A|--------------10----7----------7-----10----7-----|
E|-------------------------------------------------|

G|-------------------------------------------------|\
D|-7-------9-----------9--7-------9-----------9----|\ | This riff
A|------7-----10----7----------7-----10----7-------|\ | twice
E|-------------------------------------------------|\

G|---------------------------------------7----7-6-4-0-|
D|-7-------9-----------9--7-------9--5------5---------|
A|------7-----10----7----------7----------------------|
E|----------------------------------------------------|


Chorus [2x]
G|------------------------2--------------|
D|---------------------------------------|
A|--2-----5--10----7--0-----------4-5-7--|
E|---------------------------------------|


Verse 3 (1:53)
G|-------------------------------------------------|
D|-7------9--7-----------9--7-------9-----------9--|
A|--------------10----7----------7-----10----7-----|
E|-------------------------------------------------|

G|-------------------------------------------------|\
D|-7-------9-----------9--7-------9-----------9----|\ | This riff
A|------7-----10----7----------7-----10----7-------|\ | twice
E|-------------------------------------------------|\

G|---------------------------------------7------|
D|-7-------9-----------9--7-------9--5----------|
A|------7-----10----7----------7----------------|
E|----------------------------------------------|


Last Chorus
G|------------------------2----------------|\
D|-----------------------------------------|\ | This riff
A|--2-----5--10----7--0-----------4-5-7----|\ | twice
E|-----------------------------------------|\

G|-----------------------------------------|\
D|-----------------------------------------|\ | This riff
A|--2---4--5--7-------------------4-5-7----|\ | twice
E|-----------------3------5----------------|\


Outro [2x]
G|-------------------------|
D|-------------------------|
A|-------------------------|
E|--3---3-------5---5------|

And last note!
G|------------------|
D|--5---------------|
A|------------------|
E|------------------|
Suggest correction
Give kudos to tab author, rate the tab!
1 2 3 4 5
comments
print report bad tab
guest
You may want to rate the tab now too:
select rating
Wanna post a correction for this tab? Suggest correction